ISO-10303-21;
HEADER;
FILE_DESCRIPTION (( 'STEP AP214' ),
    '1' );
FILE_NAME ('000094A.STEP',
    '2023-08-01T11:36:12',
    ( '' ),
    ( '' ),
    'SwSTEP 2.0',
    'SolidWorks 2023',
    '' );
FILE_SCHEMA (( 'AUTOMOTIVE_DESIGN' ));
ENDSEC;

DATA;
#1 = VERTEX_POINT ( 'NONE', #196 ) ;
#2 = DIRECTION ( 'NONE',  ( 0.000000000000000000, 0.000000000000000000, 1.000000000000000000 ) ) ;
#3 = VERTEX_POINT ( 'NONE', #307 ) ;
#4 = DIRECTION ( 'NONE',  ( 0.000000000000000000, -1.000000000000000000, 0.000000000000000000 ) ) ;
#5 = EDGE_CURVE ( 'NONE', #110, #58, #255, .T. ) ;
#6 = DIRECTION ( 'NONE',  ( -0.000000000000000000, 1.000000000000000000, 0.000000000000000000 ) ) ;
#7 = VECTOR ( 'NONE', #195, 1000.000000000000000 ) ;
#8 = DIRECTION ( 'NONE',  ( -0.000000000000000000, 1.000000000000000000, -0.000000000000000000 ) ) ;
#9 = DIRECTION ( 'NONE',  ( -0.000000000000000000, 1.000000000000000000, -0.000000000000000000 ) ) ;
#10 = EDGE_CURVE ( 'NONE', #253, #198, #322, .T. ) ;
#11 = CIRCLE ( 'NONE', #141, 27.99999999999999645 ) ;
#12 = PLANE ( 'NONE',  #82 ) ;
#13 = DIRECTION ( 'NONE',  ( -0.000000000000000000, 1.000000000000000000, -0.000000000000000000 ) ) ;
#14 = CARTESIAN_POINT ( 'NONE',  ( 0.000000000000000000, 6.000000000000001776, 0.000000000000000000 ) ) ;
#15 = CARTESIAN_POINT ( 'NONE',  ( 2.571758278209441661E-15, 7.000000000000002665, -21.00000000000000000 ) ) ;
#16 = AXIS2_PLACEMENT_3D ( 'NONE', #45, #211, #187 ) ;
#17 = DIRECTION ( 'NONE',  ( -0.000000000000000000, 1.000000000000000000, -0.000000000000000000 ) ) ;
#18 = EDGE_LOOP ( 'NONE', ( #31, #178, #329, #118 ) ) ;
#19 = CIRCLE ( 'NONE', #306, 27.00000000000000000 ) ;
#20 = EDGE_LOOP ( 'NONE', ( #326, #338 ) ) ;
#21 = UNCERTAINTY_MEASURE_WITH_UNIT (LENGTH_MEASURE( 1.000000000000000082E-05 ), #223, 'distance_accuracy_value', 'NONE');
#22 = DIRECTION ( 'NONE',  ( 0.000000000000000000, 0.000000000000000000, 1.000000000000000000 ) ) ;
#23 = AXIS2_PLACEMENT_3D ( 'NONE', #274, #298, #270 ) ;
#24 = EDGE_LOOP ( 'NONE', ( #257, #116 ) ) ;
#25 = PRODUCT_RELATED_PRODUCT_CATEGORY ( 'part', '', ( #83 ) ) ;
#26 = CARTESIAN_POINT ( 'NONE',  ( -33.00000000000000000, 0.000000000000000000, 0.000000000000000000 ) ) ;
#27 = PRODUCT_DEFINITION_SHAPE ( 'NONE', 'NONE',  #111 ) ;
#28 = ORIENTED_EDGE ( 'NONE', *, *, #171, .T. ) ;
#29 = CIRCLE ( 'NONE', #241, 28.00000000000000000 ) ;
#30 = FACE_OUTER_BOUND ( 'NONE', #18, .T. ) ;
#31 = ORIENTED_EDGE ( 'NONE', *, *, #344, .F. ) ;
#32 = DIRECTION ( 'NONE',  ( 0.000000000000000000, 0.000000000000000000, 1.000000000000000000 ) ) ;
#33 = ORIENTED_EDGE ( 'NONE', *, *, #43, .T. ) ;
#34 = CARTESIAN_POINT ( 'NONE',  ( 3.306546357697854128E-15, 6.000000000000001776, -27.00000000000000355 ) ) ;
#35 = ADVANCED_FACE ( 'NONE', ( #129 ), #235, .T. ) ;
#36 = ORIENTED_EDGE ( 'NONE', *, *, #299, .T. ) ;
#37 = SHAPE_DEFINITION_REPRESENTATION ( #27, #50 ) ;
#38 = APPLICATION_CONTEXT ( 'automotive_design' ) ;
#39 = DIRECTION ( 'NONE',  ( 0.000000000000000000, 0.000000000000000000, 1.000000000000000000 ) ) ;
#40 = AXIS2_PLACEMENT_3D ( 'NONE', #210, #186, #70 ) ;
#41 = DIRECTION ( 'NONE',  ( -0.000000000000000000, 1.000000000000000000, -0.000000000000000000 ) ) ;
#42 = CARTESIAN_POINT ( 'NONE',  ( 0.000000000000000000, 8.371428571428571885, 26.99999999999999645 ) ) ;
#43 = EDGE_CURVE ( 'NONE', #305, #166, #345, .T. ) ;
#44 = CARTESIAN_POINT ( 'NONE',  ( 4.041334437186266200E-15, 8.371428571428571885, -33.00000000000000000 ) ) ;
#45 = CARTESIAN_POINT ( 'NONE',  ( -21.00000000000000000, 7.000000000000001776, 0.000000000000000000 ) ) ;
#46 = DIRECTION ( 'NONE',  ( 0.000000000000000000, 0.000000000000000000, 1.000000000000000000 ) ) ;
#47 =( GEOMETRIC_REPRESENTATION_CONTEXT ( 3 ) GLOBAL_UNCERTAINTY_ASSIGNED_CONTEXT ( ( #21 ) ) GLOBAL_UNIT_ASSIGNED_CONTEXT ( ( #223, #248, #252 ) ) REPRESENTATION_CONTEXT ( 'NONE', 'WORKASPACE' ) );
#48 = DIRECTION ( 'NONE',  ( -0.000000000000000000, 1.000000000000000000, -0.000000000000000000 ) ) ;
#49 = CLOSED_SHELL ( 'NONE', ( #281, #285, #137, #35, #164, #273, #188, #106, #304, #74, #100, #157 ) ) ;
#50 = ADVANCED_BREP_SHAPE_REPRESENTATION ( '000094A', ( #204, #290 ), #168 ) ;
#51 = EDGE_CURVE ( 'NONE', #3, #277, #333, .T. ) ;
#52 = ORIENTED_EDGE ( 'NONE', *, *, #269, .T. ) ;
#53 = FILL_AREA_STYLE ('',( #347 ) ) ;
#54 = EDGE_CURVE ( 'NONE', #146, #198, #150, .T. ) ;
#55 = VERTEX_POINT ( 'NONE', #183 ) ;
#56 = LINE ( 'NONE', #296, #136 ) ;
#57 = STYLED_ITEM ( 'NONE', ( #215 ), #204 ) ;
#58 = VERTEX_POINT ( 'NONE', #260 ) ;
#59 = DIRECTION ( 'NONE',  ( 0.000000000000000000, 0.000000000000000000, 1.000000000000000000 ) ) ;
#60 = ORIENTED_EDGE ( 'NONE', *, *, #94, .T. ) ;
#61 = AXIS2_PLACEMENT_3D ( 'NONE', #26, #192, #271 ) ;
#62 = PRODUCT_CONTEXT ( 'NONE', #313, 'mechanical' ) ;
#63 = ORIENTED_EDGE ( 'NONE', *, *, #205, .T. ) ;
#64 = DIRECTION ( 'NONE',  ( 1.000000000000000000, 0.000000000000000000, 0.000000000000000000 ) ) ;
#65 = EDGE_LOOP ( 'NONE', ( #28, #80, #104, #337 ) ) ;
#66 = CYLINDRICAL_SURFACE ( 'NONE', #220, 26.99999999999999645 ) ;
#67 = CARTESIAN_POINT ( 'NONE',  ( 3.429011037612588881E-15, 8.371428571428571885, -27.99999999999999645 ) ) ;
#68 = CARTESIAN_POINT ( 'NONE',  ( 0.000000000000000000, 0.9999999999999991118, 33.00000000000000000 ) ) ;
#69 = AXIS2_PLACEMENT_3D ( 'NONE', #316, #96, #292 ) ;
#70 = DIRECTION ( 'NONE',  ( 0.000000000000000000, 0.000000000000000000, 1.000000000000000000 ) ) ;
#71 = COLOUR_RGB ( '',0.7921568627450980005, 0.8196078431372548767, 0.9333333333333333481 ) ;
#72 = DIRECTION ( 'NONE',  ( -0.000000000000000000, 1.000000000000000000, -0.000000000000000000 ) ) ;
#73 = DIRECTION ( 'NONE',  ( -0.000000000000000000, 1.000000000000000000, -0.000000000000000000 ) ) ;
#74 = ADVANCED_FACE ( 'NONE', ( #346, #98 ), #212, .T. ) ;
#75 = CARTESIAN_POINT ( 'NONE',  ( 0.000000000000000000, 0.9999999999999983347, 0.000000000000000000 ) ) ;
#76 = ORIENTED_EDGE ( 'NONE', *, *, #94, .F. ) ;
#77 = FACE_OUTER_BOUND ( 'NONE', #86, .T. ) ;
#78 = EDGE_LOOP ( 'NONE', ( #60, #259, #358, #331 ) ) ;
#79 = AXIS2_PLACEMENT_3D ( 'NONE', #189, #350, #130 ) ;
#80 = ORIENTED_EDGE ( 'NONE', *, *, #324, .T. ) ;
#81 = CARTESIAN_POINT ( 'NONE',  ( 0.000000000000000000, 6.000000000000001776, 27.00000000000000000 ) ) ;
#82 = AXIS2_PLACEMENT_3D ( 'NONE', #155, #4, #122 ) ;
#83 = PRODUCT ( '000094A', '000094A', '', ( #62 ) ) ;
#84 = EDGE_LOOP ( 'NONE', ( #283, #250 ) ) ;
#85 = AXIS2_PLACEMENT_3D ( 'NONE', #318, #197, #46 ) ;
#86 = EDGE_LOOP ( 'NONE', ( #76, #312 ) ) ;
#87 = ORIENTED_EDGE ( 'NONE', *, *, #344, .T. ) ;
#88 = AXIS2_PLACEMENT_3D ( 'NONE', #308, #149, #341 ) ;
#89 = CYLINDRICAL_SURFACE ( 'NONE', #249, 21.00000000000000000 ) ;
#90 = ORIENTED_EDGE ( 'NONE', *, *, #43, .F. ) ;
#91 = CARTESIAN_POINT ( 'NONE',  ( 0.000000000000000000, 8.371428571428571885, 0.000000000000000000 ) ) ;
#92 = FACE_OUTER_BOUND ( 'NONE', #356, .T. ) ;
#93 = CARTESIAN_POINT ( 'NONE',  ( 0.000000000000000000, 0.000000000000000000, 33.00000000000000000 ) ) ;
#94 = EDGE_CURVE ( 'NONE', #302, #253, #132, .T. ) ;
#95 = PLANE ( 'NONE',  #289 ) ;
#96 = DIRECTION ( 'NONE',  ( -0.000000000000000000, 1.000000000000000000, -0.000000000000000000 ) ) ;
#97 = AXIS2_PLACEMENT_3D ( 'NONE', #237, #9, #288 ) ;
#98 = FACE_BOUND ( 'NONE', #351, .T. ) ;
#99 = CARTESIAN_POINT ( 'NONE',  ( 0.000000000000000000, 0.9999999999999991118, 0.000000000000000000 ) ) ;
#100 = ADVANCED_FACE ( 'NONE', ( #207 ), #151, .T. ) ;
#101 = CARTESIAN_POINT ( 'NONE',  ( 4.041334437186266200E-15, 0.000000000000000000, -33.00000000000000000 ) ) ;
#102 = AXIS2_PLACEMENT_3D ( 'NONE', #295, #321, #148 ) ;
#103 = CYLINDRICAL_SURFACE ( 'NONE', #88, 27.99999999999999645 ) ;
#104 = ORIENTED_EDGE ( 'NONE', *, *, #330, .F. ) ;
#105 = CIRCLE ( 'NONE', #167, 27.99999999999999645 ) ;
#106 = ADVANCED_FACE ( 'NONE', ( #240, #243 ), #12, .T. ) ;
#107 = CIRCLE ( 'NONE', #218, 28.00000000000000000 ) ;
#108 = ORIENTED_EDGE ( 'NONE', *, *, #294, .T. ) ;
#109 = MECHANICAL_DESIGN_GEOMETRIC_PRESENTATION_REPRESENTATION (  '', ( #57 ), #47 ) ;
#110 = VERTEX_POINT ( 'NONE', #125 ) ;
#111 = PRODUCT_DEFINITION ( 'UNKNOWN', '', #229, #354 ) ;
#112 = DIRECTION ( 'NONE',  ( 0.000000000000000000, 0.000000000000000000, 1.000000000000000000 ) ) ;
#113 = ORIENTED_EDGE ( 'NONE', *, *, #294, .F. ) ;
#114 = SURFACE_STYLE_USAGE ( .BOTH. , #349 ) ;
#115 = VECTOR ( 'NONE', #72, 1000.000000000000000 ) ;
#116 = ORIENTED_EDGE ( 'NONE', *, *, #239, .T. ) ;
#117 = APPLICATION_PROTOCOL_DEFINITION ( 'draft international standard', 'automotive_design', 1998, #313 ) ;
#118 = ORIENTED_EDGE ( 'NONE', *, *, #269, .F. ) ;
#119 = APPLICATION_PROTOCOL_DEFINITION ( 'draft international standard', 'automotive_design', 1998, #38 ) ;
#120 = ORIENTED_EDGE ( 'NONE', *, *, #128, .T. ) ;
#121 = DIRECTION ( 'NONE',  ( -0.000000000000000000, 1.000000000000000000, -0.000000000000000000 ) ) ;
#122 = DIRECTION ( 'NONE',  ( 0.000000000000000000, -0.000000000000000000, -1.000000000000000000 ) ) ;
#123 = FACE_BOUND ( 'NONE', #84, .T. ) ;
#124 = FACE_OUTER_BOUND ( 'NONE', #221, .T. ) ;
#125 = CARTESIAN_POINT ( 'NONE',  ( 0.000000000000000000, 0.9999999999999983347, 27.99999999999999645 ) ) ;
#126 = AXIS2_PLACEMENT_3D ( 'NONE', #282, #238, #147 ) ;
#127 = DIRECTION ( 'NONE',  ( -0.000000000000000000, 1.000000000000000000, -0.000000000000000000 ) ) ;
#128 = EDGE_CURVE ( 'NONE', #300, #166, #256, .T. ) ;
#129 = FACE_OUTER_BOUND ( 'NONE', #78, .T. ) ;
#130 = DIRECTION ( 'NONE',  ( 0.000000000000000000, 0.000000000000000000, 1.000000000000000000 ) ) ;
#131 = FACE_OUTER_BOUND ( 'NONE', #65, .T. ) ;
#132 = CIRCLE ( 'NONE', #102, 33.00000000000000000 ) ;
#133 = EDGE_CURVE ( 'NONE', #201, #284, #287, .T. ) ;
#134 = DIRECTION ( 'NONE',  ( -0.000000000000000000, 1.000000000000000000, -0.000000000000000000 ) ) ;
#135 = EDGE_LOOP ( 'NONE', ( #142, #193 ) ) ;
#136 = VECTOR ( 'NONE', #244, 1000.000000000000000 ) ;
#137 = ADVANCED_FACE ( 'NONE', ( #92 ), #66, .F. ) ;
#138 = ORIENTED_EDGE ( 'NONE', *, *, #152, .F. ) ;
#139 = FACE_OUTER_BOUND ( 'NONE', #309, .T. ) ;
#140 = ORIENTED_EDGE ( 'NONE', *, *, #51, .T. ) ;
#141 = AXIS2_PLACEMENT_3D ( 'NONE', #145, #121, #236 ) ;
#142 = ORIENTED_EDGE ( 'NONE', *, *, #330, .T. ) ;
#143 = DIRECTION ( 'NONE',  ( 0.000000000000000000, 0.000000000000000000, 1.000000000000000000 ) ) ;
#144 = ORIENTED_EDGE ( 'NONE', *, *, #179, .F. ) ;
#145 = CARTESIAN_POINT ( 'NONE',  ( 0.000000000000000000, 0.9999999999999983347, 0.000000000000000000 ) ) ;
#146 = VERTEX_POINT ( 'NONE', #68 ) ;
#147 = DIRECTION ( 'NONE',  ( 0.000000000000000000, 0.000000000000000000, 1.000000000000000000 ) ) ;
#148 = DIRECTION ( 'NONE',  ( 0.000000000000000000, 0.000000000000000000, 1.000000000000000000 ) ) ;
#149 = DIRECTION ( 'NONE',  ( -0.000000000000000000, 1.000000000000000000, -0.000000000000000000 ) ) ;
#150 = CIRCLE ( 'NONE', #182, 33.00000000000000000 ) ;
#151 = CYLINDRICAL_SURFACE ( 'NONE', #69, 27.99999999999999645 ) ;
#152 = EDGE_CURVE ( 'NONE', #284, #277, #268, .T. ) ;
#153 = CARTESIAN_POINT ( 'NONE',  ( 0.000000000000000000, 6.000000000000003553, 0.000000000000000000 ) ) ;
#154 = CIRCLE ( 'NONE', #335, 26.99999999999999645 ) ;
#155 = CARTESIAN_POINT ( 'NONE',  ( -27.00000000000000000, 6.000000000000002665, 0.000000000000000000 ) ) ;
#156 = DIRECTION ( 'NONE',  ( 0.000000000000000000, 0.000000000000000000, 1.000000000000000000 ) ) ;
#157 = ADVANCED_FACE ( 'NONE', ( #342, #123 ), #95, .T. ) ;
#158 = DIRECTION ( 'NONE',  ( -0.000000000000000000, 1.000000000000000000, -0.000000000000000000 ) ) ;
#159 = PRESENTATION_LAYER_ASSIGNMENT (  '', '', ( #57 ) ) ;
#160 = DIRECTION ( 'NONE',  ( 0.000000000000000000, 0.000000000000000000, 1.000000000000000000 ) ) ;
#161 = FACE_BOUND ( 'NONE', #24, .T. ) ;
#162 = EDGE_CURVE ( 'NONE', #253, #302, #184, .T. ) ;
#163 = DIRECTION ( 'NONE',  ( 0.000000000000000000, 0.000000000000000000, 1.000000000000000000 ) ) ;
#164 = ADVANCED_FACE ( 'NONE', ( #165 ), #190, .T. ) ;
#165 = FACE_OUTER_BOUND ( 'NONE', #315, .T. ) ;
#166 = VERTEX_POINT ( 'NONE', #81 ) ;
#167 = AXIS2_PLACEMENT_3D ( 'NONE', #75, #226, #22 ) ;
#168 =( GEOMETRIC_REPRESENTATION_CONTEXT ( 3 ) GLOBAL_UNCERTAINTY_ASSIGNED_CONTEXT ( ( #194 ) ) GLOBAL_UNIT_ASSIGNED_CONTEXT ( ( #202, #314, #258 ) ) REPRESENTATION_CONTEXT ( 'NONE', 'WORKASPACE' ) );
#169 = CARTESIAN_POINT ( 'NONE',  ( 0.000000000000000000, 0.000000000000000000, 0.000000000000000000 ) ) ;
#170 = CARTESIAN_POINT ( 'NONE',  ( 0.000000000000000000, 0.9999999999999991118, 0.000000000000000000 ) ) ;
#171 = EDGE_CURVE ( 'NONE', #110, #328, #105, .T. ) ;
#172 = CYLINDRICAL_SURFACE ( 'NONE', #191, 21.00000000000000000 ) ;
#173 = VECTOR ( 'NONE', #262, 1000.000000000000000 ) ;
#174 = EDGE_LOOP ( 'NONE', ( #224, #108 ) ) ;
#175 = DIRECTION ( 'NONE',  ( 0.000000000000000000, 0.000000000000000000, 1.000000000000000000 ) ) ;
#176 = ORIENTED_EDGE ( 'NONE', *, *, #179, .T. ) ;
#177 = CARTESIAN_POINT ( 'NONE',  ( 3.429011037612588881E-15, 0.9999999999999983347, -27.99999999999999645 ) ) ;
#178 = ORIENTED_EDGE ( 'NONE', *, *, #152, .T. ) ;
#179 = EDGE_CURVE ( 'NONE', #1, #300, #327, .T. ) ;
#180 = CARTESIAN_POINT ( 'NONE',  ( 2.571758278209441661E-15, 8.371428571428571885, -21.00000000000000000 ) ) ;
#181 = DIRECTION ( 'NONE',  ( -0.000000000000000000, 1.000000000000000000, -0.000000000000000000 ) ) ;
#182 = AXIS2_PLACEMENT_3D ( 'NONE', #99, #242, #39 ) ;
#183 = CARTESIAN_POINT ( 'NONE',  ( 3.429011037612589670E-15, 7.000000000000000888, -28.00000000000000355 ) ) ;
#184 = CIRCLE ( 'NONE', #85, 33.00000000000000000 ) ;
#185 = CARTESIAN_POINT ( 'NONE',  ( 0.000000000000000000, 8.371428571428571885, 0.000000000000000000 ) ) ;
#186 = DIRECTION ( 'NONE',  ( -0.000000000000000000, 1.000000000000000000, -0.000000000000000000 ) ) ;
#187 = DIRECTION ( 'NONE',  ( 0.000000000000000000, 0.000000000000000000, 1.000000000000000000 ) ) ;
#188 = ADVANCED_FACE ( 'NONE', ( #139 ), #325, .F. ) ;
#189 = CARTESIAN_POINT ( 'NONE',  ( 0.000000000000000000, 7.000000000000002665, 0.000000000000000000 ) ) ;
#190 = CYLINDRICAL_SURFACE ( 'NONE', #23, 33.00000000000000000 ) ;
#191 = AXIS2_PLACEMENT_3D ( 'NONE', #91, #8, #143 ) ;
#192 = DIRECTION ( 'NONE',  ( 0.000000000000000000, -1.000000000000000000, 0.000000000000000000 ) ) ;
#193 = ORIENTED_EDGE ( 'NONE', *, *, #348, .T. ) ;
#194 = UNCERTAINTY_MEASURE_WITH_UNIT (LENGTH_MEASURE( 1.000000000000000082E-05 ), #202, 'distance_accuracy_value', 'NONE');
#195 = DIRECTION ( 'NONE',  ( -0.000000000000000000, 1.000000000000000000, -0.000000000000000000 ) ) ;
#196 = CARTESIAN_POINT ( 'NONE',  ( 3.306546357697853339E-15, 0.000000000000000000, -26.99999999999999645 ) ) ;
#197 = DIRECTION ( 'NONE',  ( -0.000000000000000000, 1.000000000000000000, -0.000000000000000000 ) ) ;
#198 = VERTEX_POINT ( 'NONE', #272 ) ;
#199 = DIRECTION ( 'NONE',  ( -0.000000000000000000, 1.000000000000000000, -0.000000000000000000 ) ) ;
#200 = VECTOR ( 'NONE', #48, 1000.000000000000000 ) ;
#201 = VERTEX_POINT ( 'NONE', #254 ) ;
#202 =( LENGTH_UNIT ( ) NAMED_UNIT ( * ) SI_UNIT ( .MILLI., .METRE. ) );
#203 = ORIENTED_EDGE ( 'NONE', *, *, #352, .F. ) ;
#204 = MANIFOLD_SOLID_BREP ( 'Révolution1', #49 ) ;
#205 = EDGE_CURVE ( 'NONE', #302, #146, #56, .T. ) ;
#206 = CARTESIAN_POINT ( 'NONE',  ( 0.000000000000000000, 7.000000000000000888, 0.000000000000000000 ) ) ;
#207 = FACE_OUTER_BOUND ( 'NONE', #334, .T. ) ;
#208 = CARTESIAN_POINT ( 'NONE',  ( 0.000000000000000000, 7.000000000000000888, 0.000000000000000000 ) ) ;
#209 = DIRECTION ( 'NONE',  ( 0.000000000000000000, 0.000000000000000000, 1.000000000000000000 ) ) ;
#210 = CARTESIAN_POINT ( 'NONE',  ( 0.000000000000000000, 6.000000000000003553, 0.000000000000000000 ) ) ;
#211 = DIRECTION ( 'NONE',  ( -0.000000000000000000, 1.000000000000000000, 0.000000000000000000 ) ) ;
#212 = PLANE ( 'NONE',  #16 ) ;
#213 = LINE ( 'NONE', #276, #200 ) ;
#214 = AXIS2_PLACEMENT_3D ( 'NONE', #332, #17, #112 ) ;
#215 = PRESENTATION_STYLE_ASSIGNMENT (( #114 ) ) ;
#216 = ORIENTED_EDGE ( 'NONE', *, *, #162, .T. ) ;
#217 = PLANE ( 'NONE',  #61 ) ;
#218 = AXIS2_PLACEMENT_3D ( 'NONE', #206, #232, #32 ) ;
#219 = ORIENTED_EDGE ( 'NONE', *, *, #51, .F. ) ;
#220 = AXIS2_PLACEMENT_3D ( 'NONE', #185, #158, #266 ) ;
#221 = EDGE_LOOP ( 'NONE', ( #138, #297, #52, #140 ) ) ;
#222 = EDGE_CURVE ( 'NONE', #166, #300, #19, .T. ) ;
#223 =( LENGTH_UNIT ( ) NAMED_UNIT ( * ) SI_UNIT ( .MILLI., .METRE. ) );
#224 = ORIENTED_EDGE ( 'NONE', *, *, #54, .T. ) ;
#225 = AXIS2_PLACEMENT_3D ( 'NONE', #291, #320, #156 ) ;
#226 = DIRECTION ( 'NONE',  ( -0.000000000000000000, 1.000000000000000000, -0.000000000000000000 ) ) ;
#227 = EDGE_LOOP ( 'NONE', ( #336, #87 ) ) ;
#228 = CIRCLE ( 'NONE', #79, 21.00000000000000000 ) ;
#229 = PRODUCT_DEFINITION_FORMATION_WITH_SPECIFIED_SOURCE ( 'ANY', '', #83, .NOT_KNOWN. ) ;
#230 = DIRECTION ( 'NONE',  ( 0.000000000000000000, 0.000000000000000000, 1.000000000000000000 ) ) ;
#231 = ORIENTED_EDGE ( 'NONE', *, *, #10, .F. ) ;
#232 = DIRECTION ( 'NONE',  ( -0.000000000000000000, 1.000000000000000000, -0.000000000000000000 ) ) ;
#233 = ORIENTED_EDGE ( 'NONE', *, *, #348, .F. ) ;
#234 = LINE ( 'NONE', #67, #173 ) ;
#235 = CYLINDRICAL_SURFACE ( 'NONE', #97, 33.00000000000000000 ) ;
#236 = DIRECTION ( 'NONE',  ( 0.000000000000000000, 0.000000000000000000, 1.000000000000000000 ) ) ;
#237 = CARTESIAN_POINT ( 'NONE',  ( 0.000000000000000000, 8.371428571428571885, 0.000000000000000000 ) ) ;
#238 = DIRECTION ( 'NONE',  ( -0.000000000000000000, 1.000000000000000000, -0.000000000000000000 ) ) ;
#239 = EDGE_CURVE ( 'NONE', #1, #305, #154, .T. ) ;
#240 = FACE_BOUND ( 'NONE', #227, .T. ) ;
#241 = AXIS2_PLACEMENT_3D ( 'NONE', #208, #181, #339 ) ;
#242 = DIRECTION ( 'NONE',  ( -0.000000000000000000, 1.000000000000000000, -0.000000000000000000 ) ) ;
#243 = FACE_OUTER_BOUND ( 'NONE', #20, .T. ) ;
#244 = DIRECTION ( 'NONE',  ( -0.000000000000000000, 1.000000000000000000, -0.000000000000000000 ) ) ;
#245 = EDGE_CURVE ( 'NONE', #277, #3, #228, .T. ) ;
#246 = VECTOR ( 'NONE', #127, 1000.000000000000000 ) ;
#247 = SURFACE_STYLE_FILL_AREA ( #53 ) ;
#248 =( NAMED_UNIT ( * ) PLANE_ANGLE_UNIT ( ) SI_UNIT ( $, .RADIAN. ) );
#249 = AXIS2_PLACEMENT_3D ( 'NONE', #264, #41, #59 ) ;
#250 = ORIENTED_EDGE ( 'NONE', *, *, #299, .F. ) ;
#251 = ORIENTED_EDGE ( 'NONE', *, *, #245, .F. ) ;
#252 =( NAMED_UNIT ( * ) SI_UNIT ( $, .STERADIAN. ) SOLID_ANGLE_UNIT ( ) );
#253 = VERTEX_POINT ( 'NONE', #101 ) ;
#254 = CARTESIAN_POINT ( 'NONE',  ( 0.000000000000000000, 6.000000000000003553, 21.00000000000000000 ) ) ;
#255 = LINE ( 'NONE', #265, #115 ) ;
#256 = CIRCLE ( 'NONE', #225, 27.00000000000000000 ) ;
#257 = ORIENTED_EDGE ( 'NONE', *, *, #352, .T. ) ;
#258 =( NAMED_UNIT ( * ) SI_UNIT ( $, .STERADIAN. ) SOLID_ANGLE_UNIT ( ) );
#259 = ORIENTED_EDGE ( 'NONE', *, *, #10, .T. ) ;
#260 = CARTESIAN_POINT ( 'NONE',  ( 0.000000000000000000, 7.000000000000000888, 28.00000000000000000 ) ) ;
#261 = VECTOR ( 'NONE', #73, 1000.000000000000000 ) ;
#262 = DIRECTION ( 'NONE',  ( -0.000000000000000000, 1.000000000000000000, -0.000000000000000000 ) ) ;
#263 = CARTESIAN_POINT ( 'NONE',  ( -27.99999999999999645, 0.9999999999999986677, 0.000000000000000000 ) ) ;
#264 = CARTESIAN_POINT ( 'NONE',  ( 0.000000000000000000, 8.371428571428571885, 0.000000000000000000 ) ) ;
#265 = CARTESIAN_POINT ( 'NONE',  ( 0.000000000000000000, 8.371428571428571885, 27.99999999999999645 ) ) ;
#266 = DIRECTION ( 'NONE',  ( 0.000000000000000000, 0.000000000000000000, 1.000000000000000000 ) ) ;
#267 = CIRCLE ( 'NONE', #293, 33.00000000000000000 ) ;
#268 = LINE ( 'NONE', #180, #323 ) ;
#269 = EDGE_CURVE ( 'NONE', #201, #3, #213, .T. ) ;
#270 = DIRECTION ( 'NONE',  ( 0.000000000000000000, 0.000000000000000000, 1.000000000000000000 ) ) ;
#271 = DIRECTION ( 'NONE',  ( 0.000000000000000000, -0.000000000000000000, -1.000000000000000000 ) ) ;
#272 = CARTESIAN_POINT ( 'NONE',  ( 4.041334437186266200E-15, 0.9999999999999991118, -33.00000000000000000 ) ) ;
#273 = ADVANCED_FACE ( 'NONE', ( #161, #77 ), #217, .T. ) ;
#274 = CARTESIAN_POINT ( 'NONE',  ( 0.000000000000000000, 8.371428571428571885, 0.000000000000000000 ) ) ;
#275 = ORIENTED_EDGE ( 'NONE', *, *, #222, .T. ) ;
#276 = CARTESIAN_POINT ( 'NONE',  ( 0.000000000000000000, 8.371428571428571885, 21.00000000000000000 ) ) ;
#277 = VERTEX_POINT ( 'NONE', #15 ) ;
#278 = DIRECTION ( 'NONE',  ( -0.000000000000000000, 1.000000000000000000, -0.000000000000000000 ) ) ;
#279 = CIRCLE ( 'NONE', #126, 26.99999999999999645 ) ;
#280 = ORIENTED_EDGE ( 'NONE', *, *, #5, .T. ) ;
#281 = ADVANCED_FACE ( 'NONE', ( #131 ), #103, .T. ) ;
#282 = CARTESIAN_POINT ( 'NONE',  ( 0.000000000000000000, 0.000000000000000000, 0.000000000000000000 ) ) ;
#283 = ORIENTED_EDGE ( 'NONE', *, *, #171, .F. ) ;
#284 = VERTEX_POINT ( 'NONE', #317 ) ;
#285 = ADVANCED_FACE ( 'NONE', ( #30 ), #89, .F. ) ;
#286 = DIRECTION ( 'NONE',  ( -0.000000000000000000, 1.000000000000000000, -0.000000000000000000 ) ) ;
#287 = CIRCLE ( 'NONE', #40, 21.00000000000000000 ) ;
#288 = DIRECTION ( 'NONE',  ( 0.000000000000000000, 0.000000000000000000, 1.000000000000000000 ) ) ;
#289 = AXIS2_PLACEMENT_3D ( 'NONE', #263, #6, #209 ) ;
#290 = AXIS2_PLACEMENT_3D ( 'NONE', #310, #2, #64 ) ;
#291 = CARTESIAN_POINT ( 'NONE',  ( 0.000000000000000000, 6.000000000000001776, 0.000000000000000000 ) ) ;
#292 = DIRECTION ( 'NONE',  ( 0.000000000000000000, 0.000000000000000000, 1.000000000000000000 ) ) ;
#293 = AXIS2_PLACEMENT_3D ( 'NONE', #170, #278, #230 ) ;
#294 = EDGE_CURVE ( 'NONE', #198, #146, #267, .T. ) ;
#295 = CARTESIAN_POINT ( 'NONE',  ( 0.000000000000000000, 0.000000000000000000, 0.000000000000000000 ) ) ;
#296 = CARTESIAN_POINT ( 'NONE',  ( 0.000000000000000000, 8.371428571428571885, 33.00000000000000000 ) ) ;
#297 = ORIENTED_EDGE ( 'NONE', *, *, #133, .F. ) ;
#298 = DIRECTION ( 'NONE',  ( -0.000000000000000000, 1.000000000000000000, -0.000000000000000000 ) ) ;
#299 = EDGE_CURVE ( 'NONE', #328, #110, #11, .T. ) ;
#300 = VERTEX_POINT ( 'NONE', #34 ) ;
#301 = AXIS2_PLACEMENT_3D ( 'NONE', #153, #199, #175 ) ;
#302 = VERTEX_POINT ( 'NONE', #93 ) ;
#303 = DIRECTION ( 'NONE',  ( -0.000000000000000000, 1.000000000000000000, -0.000000000000000000 ) ) ;
#304 = ADVANCED_FACE ( 'NONE', ( #124 ), #172, .F. ) ;
#305 = VERTEX_POINT ( 'NONE', #359 ) ;
#306 = AXIS2_PLACEMENT_3D ( 'NONE', #14, #303, #163 ) ;
#307 = CARTESIAN_POINT ( 'NONE',  ( 0.000000000000000000, 7.000000000000002665, 21.00000000000000000 ) ) ;
#308 = CARTESIAN_POINT ( 'NONE',  ( 0.000000000000000000, 8.371428571428571885, 0.000000000000000000 ) ) ;
#309 = EDGE_LOOP ( 'NONE', ( #144, #203, #33, #275 ) ) ;
#310 = CARTESIAN_POINT ( 'NONE',  ( 0.000000000000000000, 0.000000000000000000, 0.000000000000000000 ) ) ;
#311 = CIRCLE ( 'NONE', #301, 21.00000000000000000 ) ;
#312 = ORIENTED_EDGE ( 'NONE', *, *, #162, .F. ) ;
#313 = APPLICATION_CONTEXT ( 'automotive_design' ) ;
#314 =( NAMED_UNIT ( * ) PLANE_ANGLE_UNIT ( ) SI_UNIT ( $, .RADIAN. ) );
#315 = EDGE_LOOP ( 'NONE', ( #231, #216, #63, #113 ) ) ;
#316 = CARTESIAN_POINT ( 'NONE',  ( 0.000000000000000000, 8.371428571428571885, 0.000000000000000000 ) ) ;
#317 = CARTESIAN_POINT ( 'NONE',  ( 2.571758278209441661E-15, 6.000000000000003553, -21.00000000000000000 ) ) ;
#318 = CARTESIAN_POINT ( 'NONE',  ( 0.000000000000000000, 0.000000000000000000, 0.000000000000000000 ) ) ;
#319 = AXIS2_PLACEMENT_3D ( 'NONE', #340, #286, #343 ) ;
#320 = DIRECTION ( 'NONE',  ( -0.000000000000000000, 1.000000000000000000, -0.000000000000000000 ) ) ;
#321 = DIRECTION ( 'NONE',  ( -0.000000000000000000, 1.000000000000000000, -0.000000000000000000 ) ) ;
#322 = LINE ( 'NONE', #44, #246 ) ;
#323 = VECTOR ( 'NONE', #13, 1000.000000000000000 ) ;
#324 = EDGE_CURVE ( 'NONE', #328, #55, #234, .T. ) ;
#325 = CYLINDRICAL_SURFACE ( 'NONE', #214, 26.99999999999999645 ) ;
#326 = ORIENTED_EDGE ( 'NONE', *, *, #222, .F. ) ;
#327 = LINE ( 'NONE', #357, #7 ) ;
#328 = VERTEX_POINT ( 'NONE', #177 ) ;
#329 = ORIENTED_EDGE ( 'NONE', *, *, #245, .T. ) ;
#330 = EDGE_CURVE ( 'NONE', #58, #55, #107, .T. ) ;
#331 = ORIENTED_EDGE ( 'NONE', *, *, #205, .F. ) ;
#332 = CARTESIAN_POINT ( 'NONE',  ( 0.000000000000000000, 8.371428571428571885, 0.000000000000000000 ) ) ;
#333 = CIRCLE ( 'NONE', #319, 21.00000000000000000 ) ;
#334 = EDGE_LOOP ( 'NONE', ( #355, #36, #280, #233 ) ) ;
#335 = AXIS2_PLACEMENT_3D ( 'NONE', #169, #134, #160 ) ;
#336 = ORIENTED_EDGE ( 'NONE', *, *, #133, .T. ) ;
#337 = ORIENTED_EDGE ( 'NONE', *, *, #5, .F. ) ;
#338 = ORIENTED_EDGE ( 'NONE', *, *, #128, .F. ) ;
#339 = DIRECTION ( 'NONE',  ( 0.000000000000000000, 0.000000000000000000, 1.000000000000000000 ) ) ;
#340 = CARTESIAN_POINT ( 'NONE',  ( 0.000000000000000000, 7.000000000000002665, 0.000000000000000000 ) ) ;
#341 = DIRECTION ( 'NONE',  ( 0.000000000000000000, 0.000000000000000000, 1.000000000000000000 ) ) ;
#342 = FACE_OUTER_BOUND ( 'NONE', #174, .T. ) ;
#343 = DIRECTION ( 'NONE',  ( 0.000000000000000000, 0.000000000000000000, 1.000000000000000000 ) ) ;
#344 = EDGE_CURVE ( 'NONE', #284, #201, #311, .T. ) ;
#345 = LINE ( 'NONE', #42, #261 ) ;
#346 = FACE_OUTER_BOUND ( 'NONE', #135, .T. ) ;
#347 = FILL_AREA_STYLE_COLOUR ( '', #71 ) ;
#348 = EDGE_CURVE ( 'NONE', #55, #58, #29, .T. ) ;
#349 = SURFACE_SIDE_STYLE ('',( #247 ) ) ;
#350 = DIRECTION ( 'NONE',  ( -0.000000000000000000, 1.000000000000000000, -0.000000000000000000 ) ) ;
#351 = EDGE_LOOP ( 'NONE', ( #219, #251 ) ) ;
#352 = EDGE_CURVE ( 'NONE', #305, #1, #279, .T. ) ;
#353 = ORIENTED_EDGE ( 'NONE', *, *, #239, .F. ) ;
#354 = PRODUCT_DEFINITION_CONTEXT ( 'detailed design', #38, 'design' ) ;
#355 = ORIENTED_EDGE ( 'NONE', *, *, #324, .F. ) ;
#356 = EDGE_LOOP ( 'NONE', ( #353, #176, #120, #90 ) ) ;
#357 = CARTESIAN_POINT ( 'NONE',  ( 3.306546357697853339E-15, 8.371428571428571885, -26.99999999999999645 ) ) ;
#358 = ORIENTED_EDGE ( 'NONE', *, *, #54, .F. ) ;
#359 = CARTESIAN_POINT ( 'NONE',  ( 0.000000000000000000, 0.000000000000000000, 26.99999999999999645 ) ) ;
ENDSEC;
END-ISO-10303-21;
