ISO-10303-21;
HEADER;
FILE_DESCRIPTION(('FreeCAD Model'),'2;1');
FILE_NAME('Open CASCADE Shape Model','2023-09-20T17:42:00',('Author'),(
    ''),'Open CASCADE STEP processor 7.6','FreeCAD','Unknown');
FILE_SCHEMA(('AUTOMOTIVE_DESIGN { 1 0 10303 214 1 1 1 1 }'));
ENDSEC;
DATA;
#1 = APPLICATION_PROTOCOL_DEFINITION('international standard',
  'automotive_design',2000,#2);
#2 = APPLICATION_CONTEXT(
  'core data for automotive mechanical design processes');
#3 = SHAPE_DEFINITION_REPRESENTATION(#4,#10);
#4 = PRODUCT_DEFINITION_SHAPE('','',#5);
#5 = PRODUCT_DEFINITION('design','',#6,#9);
#6 = PRODUCT_DEFINITION_FORMATION('','',#7);
#7 = PRODUCT('Body','Body','',(#8));
#8 = PRODUCT_CONTEXT('',#2,'mechanical');
#9 = PRODUCT_DEFINITION_CONTEXT('part definition',#2,'design');
#10 = ADVANCED_BREP_SHAPE_REPRESENTATION('',(#11,#15),#538);
#11 = AXIS2_PLACEMENT_3D('',#12,#13,#14);
#12 = CARTESIAN_POINT('',(0.,0.,0.));
#13 = DIRECTION('',(0.,0.,1.));
#14 = DIRECTION('',(1.,0.,-0.));
#15 = MANIFOLD_SOLID_BREP('',#16);
#16 = CLOSED_SHELL('',(#17,#316,#338,#355,#373,#383,#400,#417,#427,#443,
    #460,#477,#494,#511,#528));
#17 = ADVANCED_FACE('',(#18),#311,.T.);
#18 = FACE_BOUND('',#19,.F.);
#19 = EDGE_LOOP('',(#20,#30,#47,#56,#73,#81,#90,#98,#107,#115,#132,#141,
    #155,#163,#172,#180,#194,#203,#220,#228,#235,#236,#245,#253,#270,
    #279,#296,#304));
#20 = ORIENTED_EDGE('',*,*,#21,.F.);
#21 = EDGE_CURVE('',#22,#24,#26,.T.);
#22 = VERTEX_POINT('',#23);
#23 = CARTESIAN_POINT('',(-9.682458365519,-4.5,2.5));
#24 = VERTEX_POINT('',#25);
#25 = CARTESIAN_POINT('',(-9.682458365519,5.551115123125E-16,2.5));
#26 = LINE('',#27,#28);
#27 = CARTESIAN_POINT('',(-9.682458365519,5.551115123126E-16,2.5));
#28 = VECTOR('',#29,1.);
#29 = DIRECTION('',(0.,1.,-2.22044604925E-16));
#30 = ORIENTED_EDGE('',*,*,#31,.T.);
#31 = EDGE_CURVE('',#22,#32,#34,.T.);
#32 = VERTEX_POINT('',#33);
#33 = CARTESIAN_POINT('',(-9.539392014169,-5.,3.));
#34 = B_SPLINE_CURVE_WITH_KNOTS('',6,(#35,#36,#37,#38,#39,#40,#41,#42,
    #43,#44,#45,#46),.UNSPECIFIED.,.F.,.F.,(7,5,7),(0.,0.511616392045,1.
    ),.UNSPECIFIED.);
#35 = CARTESIAN_POINT('',(-9.682458365519,-4.5,2.5));
#36 = CARTESIAN_POINT('',(-9.682458365519,-4.564604826661,2.5));
#37 = CARTESIAN_POINT('',(-9.679872114701,-4.629192827617,2.510017014355
    ));
#38 = CARTESIAN_POINT('',(-9.674701170828,-4.692148436168,2.530041572002
    ));
#39 = CARTESIAN_POINT('',(-9.666910786023,-4.751770790521,2.559898908208
    ));
#40 = CARTESIAN_POINT('',(-9.656460681562,-4.806179766694,2.599072985508
    ));
#41 = CARTESIAN_POINT('',(-9.631049643219,-4.898775751959,2.691668970773
    ));
#42 = CARTESIAN_POINT('',(-9.616305916932,-4.937619477098,2.744395573101
    ));
#43 = CARTESIAN_POINT('',(-9.599357097762,-4.968355796424,2.803541644388
    ));
#44 = CARTESIAN_POINT('',(-9.580474318414,-4.98947638046,2.867440405024)
  );
#45 = CARTESIAN_POINT('',(-9.560216690629,-5.,2.93378174923));
#46 = CARTESIAN_POINT('',(-9.539392014169,-5.,3.));
#47 = ORIENTED_EDGE('',*,*,#48,.T.);
#48 = EDGE_CURVE('',#32,#49,#51,.T.);
#49 = VERTEX_POINT('',#50);
#50 = CARTESIAN_POINT('',(9.539392014169,-5.,3.));
#51 = CIRCLE('',#52,10.);
#52 = AXIS2_PLACEMENT_3D('',#53,#54,#55);
#53 = CARTESIAN_POINT('',(0.,-5.,1.110223024625E-15));
#54 = DIRECTION('',(0.,1.,-2.22044604925E-16));
#55 = DIRECTION('',(1.,0.,0.));
#56 = ORIENTED_EDGE('',*,*,#57,.F.);
#57 = EDGE_CURVE('',#58,#49,#60,.T.);
#58 = VERTEX_POINT('',#59);
#59 = CARTESIAN_POINT('',(9.682458365519,-4.5,2.5));
#60 = B_SPLINE_CURVE_WITH_KNOTS('',6,(#61,#62,#63,#64,#65,#66,#67,#68,
    #69,#70,#71,#72),.UNSPECIFIED.,.F.,.F.,(7,5,7),(0.,0.511616392045,1.
    ),.UNSPECIFIED.);
#61 = CARTESIAN_POINT('',(9.682458365519,-4.5,2.5));
#62 = CARTESIAN_POINT('',(9.682458365519,-4.564604826661,2.5));
#63 = CARTESIAN_POINT('',(9.679872114701,-4.629192827617,2.510017014355)
  );
#64 = CARTESIAN_POINT('',(9.674701170828,-4.692148436168,2.530041572002)
  );
#65 = CARTESIAN_POINT('',(9.666910786023,-4.751770790521,2.559898908208)
  );
#66 = CARTESIAN_POINT('',(9.656460681562,-4.806179766694,2.599072985508)
  );
#67 = CARTESIAN_POINT('',(9.631049643219,-4.898775751959,2.691668970773)
  );
#68 = CARTESIAN_POINT('',(9.616305916932,-4.937619477098,2.744395573101)
  );
#69 = CARTESIAN_POINT('',(9.599357097762,-4.968355796424,2.803541644388)
  );
#70 = CARTESIAN_POINT('',(9.580474318414,-4.98947638046,2.867440405024)
  );
#71 = CARTESIAN_POINT('',(9.560216690629,-5.,2.93378174923));
#72 = CARTESIAN_POINT('',(9.539392014169,-5.,3.));
#73 = ORIENTED_EDGE('',*,*,#74,.T.);
#74 = EDGE_CURVE('',#58,#75,#77,.T.);
#75 = VERTEX_POINT('',#76);
#76 = CARTESIAN_POINT('',(9.682458365519,5.551115123126E-16,2.5));
#77 = LINE('',#78,#79);
#78 = CARTESIAN_POINT('',(9.682458365519,5.551115123126E-16,2.5));
#79 = VECTOR('',#80,1.);
#80 = DIRECTION('',(0.,1.,-2.22044604925E-16));
#81 = ORIENTED_EDGE('',*,*,#82,.F.);
#82 = EDGE_CURVE('',#83,#75,#85,.T.);
#83 = VERTEX_POINT('',#84);
#84 = CARTESIAN_POINT('',(10.,0.,0.));
#85 = CIRCLE('',#86,10.);
#86 = AXIS2_PLACEMENT_3D('',#87,#88,#89);
#87 = CARTESIAN_POINT('',(0.,0.,0.));
#88 = DIRECTION('',(0.,-1.,2.22044604925E-16));
#89 = DIRECTION('',(1.,0.,0.));
#90 = ORIENTED_EDGE('',*,*,#91,.T.);
#91 = EDGE_CURVE('',#83,#92,#94,.T.);
#92 = VERTEX_POINT('',#93);
#93 = CARTESIAN_POINT('',(10.,-15.,3.330669073875E-15));
#94 = LINE('',#95,#96);
#95 = CARTESIAN_POINT('',(10.,0.,0.));
#96 = VECTOR('',#97,1.);
#97 = DIRECTION('',(0.,-1.,2.22044604925E-16));
#98 = ORIENTED_EDGE('',*,*,#99,.T.);
#99 = EDGE_CURVE('',#92,#100,#102,.T.);
#100 = VERTEX_POINT('',#101);
#101 = CARTESIAN_POINT('',(2.5,-15.,9.682458365518));
#102 = CIRCLE('',#103,10.);
#103 = AXIS2_PLACEMENT_3D('',#104,#105,#106);
#104 = CARTESIAN_POINT('',(0.,-15.,3.552713678801E-15));
#105 = DIRECTION('',(0.,-1.,2.22044604925E-16));
#106 = DIRECTION('',(1.,0.,0.));
#107 = ORIENTED_EDGE('',*,*,#108,.T.);
#108 = EDGE_CURVE('',#100,#109,#111,.T.);
#109 = VERTEX_POINT('',#110);
#110 = CARTESIAN_POINT('',(2.5,-10.5,9.682458365519));
#111 = LINE('',#112,#113);
#112 = CARTESIAN_POINT('',(2.5,2.149937642475E-15,9.682458365519));
#113 = VECTOR('',#114,1.);
#114 = DIRECTION('',(0.,1.,-2.22044604925E-16));
#115 = ORIENTED_EDGE('',*,*,#116,.T.);
#116 = EDGE_CURVE('',#109,#117,#119,.T.);
#117 = VERTEX_POINT('',#118);
#118 = CARTESIAN_POINT('',(2.,-10.,9.797958971133));
#119 = B_SPLINE_CURVE_WITH_KNOTS('',6,(#120,#121,#122,#123,#124,#125,
    #126,#127,#128,#129,#130,#131),.UNSPECIFIED.,.F.,.F.,(7,5,7),(0.,
    0.552944917792,1.),.UNSPECIFIED.);
#120 = CARTESIAN_POINT('',(2.5,-10.5,9.682458365519));
#121 = CARTESIAN_POINT('',(2.5,-10.43038535397,9.682458365519));
#122 = CARTESIAN_POINT('',(2.48836928272,-10.36079129197,9.685461557687)
  );
#123 = CARTESIAN_POINT('',(2.465119903119,-10.29324235606,9.691463757213
    ));
#124 = CARTESIAN_POINT('',(2.430491707564,-10.22985936853,9.700295076538
    ));
#125 = CARTESIAN_POINT('',(2.38516746083,-10.17300284191,9.711545622241)
  );
#126 = CARTESIAN_POINT('',(2.286583449269,-10.08608934441,9.735172832734
    ));
#127 = CARTESIAN_POINT('',(2.236492568749,-10.05297382653,9.74692423193)
  );
#128 = CARTESIAN_POINT('',(2.181270974309,-10.02688410586,9.759524525503
    ));
#129 = CARTESIAN_POINT('',(2.122214195698,-10.00896352387,9.772535838421
    ));
#130 = CARTESIAN_POINT('',(2.061113276297,-10.,9.785484275846));
#131 = CARTESIAN_POINT('',(2.,-10.,9.797958971133));
#132 = ORIENTED_EDGE('',*,*,#133,.F.);
#133 = EDGE_CURVE('',#134,#117,#136,.T.);
#134 = VERTEX_POINT('',#135);
#135 = CARTESIAN_POINT('',(-2.,-10.,9.797958971133));
#136 = CIRCLE('',#137,10.);
#137 = AXIS2_PLACEMENT_3D('',#138,#139,#140);
#138 = CARTESIAN_POINT('',(0.,-10.,2.22044604925E-15));
#139 = DIRECTION('',(0.,1.,-2.22044604925E-16));
#140 = DIRECTION('',(1.,0.,0.));
#141 = ORIENTED_EDGE('',*,*,#142,.T.);
#142 = EDGE_CURVE('',#134,#143,#145,.T.);
#143 = VERTEX_POINT('',#144);
#144 = CARTESIAN_POINT('',(-2.5,-10.5,9.682458365519));
#145 = B_SPLINE_CURVE_WITH_KNOTS('',8,(#146,#147,#148,#149,#150,#151,
    #152,#153,#154),.UNSPECIFIED.,.F.,.F.,(9,9),(0.,1.),
  .PIECEWISE_BEZIER_KNOTS.);
#146 = CARTESIAN_POINT('',(-2.,-10.,9.797958971133));
#147 = CARTESIAN_POINT('',(-2.102838081188,-10.,9.776967235713));
#148 = CARTESIAN_POINT('',(-2.205233231237,-10.02417235452,
    9.754781343654));
#149 = CARTESIAN_POINT('',(-2.299072217005,-10.07215690827,
    9.733062568441));
#150 = CARTESIAN_POINT('',(-2.378082189395,-10.13944534321,
    9.713678892654));
#151 = CARTESIAN_POINT('',(-2.438926784097,-10.22089623385,
    9.698229352714));
#152 = CARTESIAN_POINT('',(-2.479719972398,-10.31129436714,
    9.687694234383));
#153 = CARTESIAN_POINT('',(-2.5,-10.40580949247,9.682458365519));
#154 = CARTESIAN_POINT('',(-2.5,-10.5,9.682458365519));
#155 = ORIENTED_EDGE('',*,*,#156,.F.);
#156 = EDGE_CURVE('',#157,#143,#159,.T.);
#157 = VERTEX_POINT('',#158);
#158 = CARTESIAN_POINT('',(-2.5,-15.,9.682458365519));
#159 = LINE('',#160,#161);
#160 = CARTESIAN_POINT('',(-2.5,2.149937642475E-15,9.682458365519));
#161 = VECTOR('',#162,1.);
#162 = DIRECTION('',(0.,1.,-2.22044604925E-16));
#163 = ORIENTED_EDGE('',*,*,#164,.T.);
#164 = EDGE_CURVE('',#157,#165,#167,.T.);
#165 = VERTEX_POINT('',#166);
#166 = CARTESIAN_POINT('',(-2.5,-15.,-9.682458365519));
#167 = CIRCLE('',#168,10.);
#168 = AXIS2_PLACEMENT_3D('',#169,#170,#171);
#169 = CARTESIAN_POINT('',(0.,-15.,3.552713678801E-15));
#170 = DIRECTION('',(0.,-1.,2.22044604925E-16));
#171 = DIRECTION('',(1.,0.,0.));
#172 = ORIENTED_EDGE('',*,*,#173,.T.);
#173 = EDGE_CURVE('',#165,#174,#176,.T.);
#174 = VERTEX_POINT('',#175);
#175 = CARTESIAN_POINT('',(-2.5,-10.5,-9.682458365519));
#176 = LINE('',#177,#178);
#177 = CARTESIAN_POINT('',(-2.5,-2.149937642475E-15,-9.682458365519));
#178 = VECTOR('',#179,1.);
#179 = DIRECTION('',(0.,1.,-2.22044604925E-16));
#180 = ORIENTED_EDGE('',*,*,#181,.F.);
#181 = EDGE_CURVE('',#182,#174,#184,.T.);
#182 = VERTEX_POINT('',#183);
#183 = CARTESIAN_POINT('',(-2.,-10.,-9.797958971133));
#184 = B_SPLINE_CURVE_WITH_KNOTS('',8,(#185,#186,#187,#188,#189,#190,
    #191,#192,#193),.UNSPECIFIED.,.F.,.F.,(9,9),(0.,1.),
  .PIECEWISE_BEZIER_KNOTS.);
#185 = CARTESIAN_POINT('',(-2.,-10.,-9.797958971133));
#186 = CARTESIAN_POINT('',(-2.102838081188,-10.,-9.776967235713));
#187 = CARTESIAN_POINT('',(-2.205233231237,-10.02417235452,
    -9.754781343654));
#188 = CARTESIAN_POINT('',(-2.299072217006,-10.07215690827,
    -9.733062568441));
#189 = CARTESIAN_POINT('',(-2.378082189394,-10.13944534321,
    -9.713678892654));
#190 = CARTESIAN_POINT('',(-2.438926784097,-10.22089623385,
    -9.698229352714));
#191 = CARTESIAN_POINT('',(-2.479719972398,-10.31129436714,
    -9.687694234383));
#192 = CARTESIAN_POINT('',(-2.5,-10.40580949247,-9.682458365519));
#193 = CARTESIAN_POINT('',(-2.5,-10.5,-9.682458365519));
#194 = ORIENTED_EDGE('',*,*,#195,.F.);
#195 = EDGE_CURVE('',#196,#182,#198,.T.);
#196 = VERTEX_POINT('',#197);
#197 = CARTESIAN_POINT('',(2.,-10.,-9.797958971133));
#198 = CIRCLE('',#199,10.);
#199 = AXIS2_PLACEMENT_3D('',#200,#201,#202);
#200 = CARTESIAN_POINT('',(0.,-10.,2.22044604925E-15));
#201 = DIRECTION('',(0.,1.,-2.22044604925E-16));
#202 = DIRECTION('',(1.,0.,0.));
#203 = ORIENTED_EDGE('',*,*,#204,.F.);
#204 = EDGE_CURVE('',#205,#196,#207,.T.);
#205 = VERTEX_POINT('',#206);
#206 = CARTESIAN_POINT('',(2.5,-10.5,-9.682458365519));
#207 = B_SPLINE_CURVE_WITH_KNOTS('',6,(#208,#209,#210,#211,#212,#213,
    #214,#215,#216,#217,#218,#219),.UNSPECIFIED.,.F.,.F.,(7,5,7),(0.,
    0.552944917792,1.),.UNSPECIFIED.);
#208 = CARTESIAN_POINT('',(2.5,-10.5,-9.682458365519));
#209 = CARTESIAN_POINT('',(2.5,-10.43038535397,-9.682458365519));
#210 = CARTESIAN_POINT('',(2.48836928272,-10.36079129197,-9.685461557687
    ));
#211 = CARTESIAN_POINT('',(2.465119903119,-10.29324235606,
    -9.691463757213));
#212 = CARTESIAN_POINT('',(2.430491707564,-10.22985936853,
    -9.700295076538));
#213 = CARTESIAN_POINT('',(2.38516746083,-10.17300284191,-9.711545622241
    ));
#214 = CARTESIAN_POINT('',(2.286583449269,-10.08608934441,
    -9.735172832734));
#215 = CARTESIAN_POINT('',(2.236492568749,-10.05297382653,-9.74692423193
    ));
#216 = CARTESIAN_POINT('',(2.181270974309,-10.02688410586,
    -9.759524525503));
#217 = CARTESIAN_POINT('',(2.122214195698,-10.00896352387,
    -9.772535838421));
#218 = CARTESIAN_POINT('',(2.061113276297,-10.,-9.785484275846));
#219 = CARTESIAN_POINT('',(2.,-10.,-9.797958971133));
#220 = ORIENTED_EDGE('',*,*,#221,.F.);
#221 = EDGE_CURVE('',#222,#205,#224,.T.);
#222 = VERTEX_POINT('',#223);
#223 = CARTESIAN_POINT('',(2.5,-15.,-9.682458365518));
#224 = LINE('',#225,#226);
#225 = CARTESIAN_POINT('',(2.5,-2.149937642475E-15,-9.682458365519));
#226 = VECTOR('',#227,1.);
#227 = DIRECTION('',(0.,1.,-2.22044604925E-16));
#228 = ORIENTED_EDGE('',*,*,#229,.T.);
#229 = EDGE_CURVE('',#222,#92,#230,.T.);
#230 = CIRCLE('',#231,10.);
#231 = AXIS2_PLACEMENT_3D('',#232,#233,#234);
#232 = CARTESIAN_POINT('',(0.,-15.,3.552713678801E-15));
#233 = DIRECTION('',(0.,-1.,2.22044604925E-16));
#234 = DIRECTION('',(1.,0.,0.));
#235 = ORIENTED_EDGE('',*,*,#91,.F.);
#236 = ORIENTED_EDGE('',*,*,#237,.F.);
#237 = EDGE_CURVE('',#238,#83,#240,.T.);
#238 = VERTEX_POINT('',#239);
#239 = CARTESIAN_POINT('',(9.682458365519,-5.551115123126E-16,-2.5));
#240 = CIRCLE('',#241,10.);
#241 = AXIS2_PLACEMENT_3D('',#242,#243,#244);
#242 = CARTESIAN_POINT('',(0.,0.,0.));
#243 = DIRECTION('',(0.,-1.,2.22044604925E-16));
#244 = DIRECTION('',(1.,0.,0.));
#245 = ORIENTED_EDGE('',*,*,#246,.F.);
#246 = EDGE_CURVE('',#247,#238,#249,.T.);
#247 = VERTEX_POINT('',#248);
#248 = CARTESIAN_POINT('',(9.682458365519,-4.5,-2.5));
#249 = LINE('',#250,#251);
#250 = CARTESIAN_POINT('',(9.682458365519,-5.551115123126E-16,-2.5));
#251 = VECTOR('',#252,1.);
#252 = DIRECTION('',(0.,1.,-2.22044604925E-16));
#253 = ORIENTED_EDGE('',*,*,#254,.T.);
#254 = EDGE_CURVE('',#247,#255,#257,.T.);
#255 = VERTEX_POINT('',#256);
#256 = CARTESIAN_POINT('',(9.539392014169,-5.,-3.));
#257 = B_SPLINE_CURVE_WITH_KNOTS('',6,(#258,#259,#260,#261,#262,#263,
    #264,#265,#266,#267,#268,#269),.UNSPECIFIED.,.F.,.F.,(7,5,7),(0.,
    0.511627085528,1.),.UNSPECIFIED.);
#258 = CARTESIAN_POINT('',(9.682458365519,-4.5,-2.5));
#259 = CARTESIAN_POINT('',(9.682458365519,-4.564604839004,-2.5));
#260 = CARTESIAN_POINT('',(9.679872102644,-4.629192965195,
    -2.510017021665));
#261 = CARTESIAN_POINT('',(9.674701170766,-4.692148061783,
    -2.530041655624));
#262 = CARTESIAN_POINT('',(9.666910908887,-4.751769460986,
    -2.559898365425));
#263 = CARTESIAN_POINT('',(9.656461001124,-4.806178602233,
    -2.599071821047));
#264 = CARTESIAN_POINT('',(9.631049869296,-4.898774928151,
    -2.691668146965));
#265 = CARTESIAN_POINT('',(9.616306037472,-4.937619560938,
    -2.744395155543));
#266 = CARTESIAN_POINT('',(9.59935697316,-4.968356100017,-2.803542123156
    ));
#267 = CARTESIAN_POINT('',(9.580474238612,-4.989476122625,
    -2.867440605676));
#268 = CARTESIAN_POINT('',(9.560216947506,-5.,-2.933780932412));
#269 = CARTESIAN_POINT('',(9.539392014169,-5.,-3.));
#270 = ORIENTED_EDGE('',*,*,#271,.T.);
#271 = EDGE_CURVE('',#255,#272,#274,.T.);
#272 = VERTEX_POINT('',#273);
#273 = CARTESIAN_POINT('',(-9.539392014169,-5.,-3.));
#274 = CIRCLE('',#275,10.);
#275 = AXIS2_PLACEMENT_3D('',#276,#277,#278);
#276 = CARTESIAN_POINT('',(0.,-5.,1.110223024625E-15));
#277 = DIRECTION('',(0.,1.,-2.22044604925E-16));
#278 = DIRECTION('',(1.,0.,0.));
#279 = ORIENTED_EDGE('',*,*,#280,.F.);
#280 = EDGE_CURVE('',#281,#272,#283,.T.);
#281 = VERTEX_POINT('',#282);
#282 = CARTESIAN_POINT('',(-9.682458365519,-4.5,-2.5));
#283 = B_SPLINE_CURVE_WITH_KNOTS('',6,(#284,#285,#286,#287,#288,#289,
    #290,#291,#292,#293,#294,#295),.UNSPECIFIED.,.F.,.F.,(7,5,7),(0.,
    0.511627085528,1.),.UNSPECIFIED.);
#284 = CARTESIAN_POINT('',(-9.682458365519,-4.5,-2.5));
#285 = CARTESIAN_POINT('',(-9.682458365519,-4.564604839004,-2.5));
#286 = CARTESIAN_POINT('',(-9.679872102644,-4.629192965195,
    -2.510017021665));
#287 = CARTESIAN_POINT('',(-9.674701170766,-4.692148061783,
    -2.530041655625));
#288 = CARTESIAN_POINT('',(-9.666910908887,-4.751769460986,
    -2.559898365425));
#289 = CARTESIAN_POINT('',(-9.656461001124,-4.806178602233,
    -2.599071821047));
#290 = CARTESIAN_POINT('',(-9.631049869296,-4.898774928151,
    -2.691668146965));
#291 = CARTESIAN_POINT('',(-9.616306037472,-4.937619560938,
    -2.744395155543));
#292 = CARTESIAN_POINT('',(-9.59935697316,-4.968356100017,
    -2.803542123156));
#293 = CARTESIAN_POINT('',(-9.580474238612,-4.989476122625,
    -2.867440605676));
#294 = CARTESIAN_POINT('',(-9.560216947506,-5.,-2.933780932412));
#295 = CARTESIAN_POINT('',(-9.539392014169,-5.,-3.));
#296 = ORIENTED_EDGE('',*,*,#297,.T.);
#297 = EDGE_CURVE('',#281,#298,#300,.T.);
#298 = VERTEX_POINT('',#299);
#299 = CARTESIAN_POINT('',(-9.682458365519,-5.551115123126E-16,-2.5));
#300 = LINE('',#301,#302);
#301 = CARTESIAN_POINT('',(-9.682458365519,-5.551115123126E-16,-2.5));
#302 = VECTOR('',#303,1.);
#303 = DIRECTION('',(0.,1.,-2.22044604925E-16));
#304 = ORIENTED_EDGE('',*,*,#305,.F.);
#305 = EDGE_CURVE('',#24,#298,#306,.T.);
#306 = CIRCLE('',#307,10.);
#307 = AXIS2_PLACEMENT_3D('',#308,#309,#310);
#308 = CARTESIAN_POINT('',(0.,0.,0.));
#309 = DIRECTION('',(0.,-1.,2.22044604925E-16));
#310 = DIRECTION('',(1.,0.,0.));
#311 = CYLINDRICAL_SURFACE('',#312,10.);
#312 = AXIS2_PLACEMENT_3D('',#313,#314,#315);
#313 = CARTESIAN_POINT('',(0.,0.,0.));
#314 = DIRECTION('',(0.,1.,-2.22044604925E-16));
#315 = DIRECTION('',(1.,0.,0.));
#316 = ADVANCED_FACE('',(#317),#333,.F.);
#317 = FACE_BOUND('',#318,.F.);
#318 = EDGE_LOOP('',(#319,#320,#326,#327));
#319 = ORIENTED_EDGE('',*,*,#21,.T.);
#320 = ORIENTED_EDGE('',*,*,#321,.F.);
#321 = EDGE_CURVE('',#75,#24,#322,.T.);
#322 = LINE('',#323,#324);
#323 = CARTESIAN_POINT('',(15.453095772347,5.551115123126E-16,2.5));
#324 = VECTOR('',#325,1.);
#325 = DIRECTION('',(-1.,-9.300830947085E-49,1.519290839322E-64));
#326 = ORIENTED_EDGE('',*,*,#74,.F.);
#327 = ORIENTED_EDGE('',*,*,#328,.T.);
#328 = EDGE_CURVE('',#58,#22,#329,.T.);
#329 = LINE('',#330,#331);
#330 = CARTESIAN_POINT('',(9.682458365519,-4.5,2.5));
#331 = VECTOR('',#332,1.);
#332 = DIRECTION('',(-1.,-9.300830947085E-49,1.519290839322E-64));
#333 = PLANE('',#334);
#334 = AXIS2_PLACEMENT_3D('',#335,#336,#337);
#335 = CARTESIAN_POINT('',(15.453095772347,5.551115123126E-16,2.5));
#336 = DIRECTION('',(5.459084937984E-65,-2.22044604925E-16,-1.));
#337 = DIRECTION('',(-1.,-9.300830947085E-49,1.519290839322E-64));
#338 = ADVANCED_FACE('',(#339),#350,.F.);
#339 = FACE_BOUND('',#340,.F.);
#340 = EDGE_LOOP('',(#341,#342,#348,#349));
#341 = ORIENTED_EDGE('',*,*,#57,.T.);
#342 = ORIENTED_EDGE('',*,*,#343,.T.);
#343 = EDGE_CURVE('',#49,#32,#344,.T.);
#344 = LINE('',#345,#346);
#345 = CARTESIAN_POINT('',(9.682458365519,-5.,3.));
#346 = VECTOR('',#347,1.);
#347 = DIRECTION('',(-1.,-9.300830947085E-49,1.519290839322E-64));
#348 = ORIENTED_EDGE('',*,*,#31,.F.);
#349 = ORIENTED_EDGE('',*,*,#328,.F.);
#350 = CYLINDRICAL_SURFACE('',#351,0.5);
#351 = AXIS2_PLACEMENT_3D('',#352,#353,#354);
#352 = CARTESIAN_POINT('',(9.682458365519,-4.5,3.));
#353 = DIRECTION('',(-1.,-9.300830947085E-49,1.519290839322E-64));
#354 = DIRECTION('',(5.459084937984E-65,-2.22044604925E-16,-1.));
#355 = ADVANCED_FACE('',(#356),#368,.T.);
#356 = FACE_BOUND('',#357,.T.);
#357 = EDGE_LOOP('',(#358,#359,#360,#366,#367));
#358 = ORIENTED_EDGE('',*,*,#82,.F.);
#359 = ORIENTED_EDGE('',*,*,#237,.F.);
#360 = ORIENTED_EDGE('',*,*,#361,.F.);
#361 = EDGE_CURVE('',#298,#238,#362,.T.);
#362 = LINE('',#363,#364);
#363 = CARTESIAN_POINT('',(-21.04917570909,-5.551115123126E-16,-2.5));
#364 = VECTOR('',#365,1.);
#365 = DIRECTION('',(1.,9.300830947085E-49,-1.519290839322E-64));
#366 = ORIENTED_EDGE('',*,*,#305,.F.);
#367 = ORIENTED_EDGE('',*,*,#321,.F.);
#368 = PLANE('',#369);
#369 = AXIS2_PLACEMENT_3D('',#370,#371,#372);
#370 = CARTESIAN_POINT('',(-5.469760530158E-16,1.522640916276E-31,
    6.857365063158E-16));
#371 = DIRECTION('',(-9.300830947085E-49,1.,-2.22044604925E-16));
#372 = DIRECTION('',(0.,2.22044604925E-16,1.));
#373 = ADVANCED_FACE('',(#374),#378,.T.);
#374 = FACE_BOUND('',#375,.T.);
#375 = EDGE_LOOP('',(#376,#377));
#376 = ORIENTED_EDGE('',*,*,#48,.T.);
#377 = ORIENTED_EDGE('',*,*,#343,.T.);
#378 = PLANE('',#379);
#379 = AXIS2_PLACEMENT_3D('',#380,#381,#382);
#380 = CARTESIAN_POINT('',(-2.215863323101E-15,-5.,6.286612607292));
#381 = DIRECTION('',(0.,1.,-2.22044604925E-16));
#382 = DIRECTION('',(0.,2.22044604925E-16,1.));
#383 = ADVANCED_FACE('',(#384),#395,.F.);
#384 = FACE_BOUND('',#385,.F.);
#385 = EDGE_LOOP('',(#386,#387,#388,#389));
#386 = ORIENTED_EDGE('',*,*,#246,.T.);
#387 = ORIENTED_EDGE('',*,*,#361,.F.);
#388 = ORIENTED_EDGE('',*,*,#297,.F.);
#389 = ORIENTED_EDGE('',*,*,#390,.T.);
#390 = EDGE_CURVE('',#281,#247,#391,.T.);
#391 = LINE('',#392,#393);
#392 = CARTESIAN_POINT('',(-9.682458365519,-4.5,-2.5));
#393 = VECTOR('',#394,1.);
#394 = DIRECTION('',(1.,9.300830947085E-49,-1.519290839322E-64));
#395 = PLANE('',#396);
#396 = AXIS2_PLACEMENT_3D('',#397,#398,#399);
#397 = CARTESIAN_POINT('',(-21.04917570909,-5.551115123126E-16,-2.5));
#398 = DIRECTION('',(-5.459084937984E-65,2.22044604925E-16,1.));
#399 = DIRECTION('',(1.,9.300830947085E-49,-1.519290839322E-64));
#400 = ADVANCED_FACE('',(#401),#412,.F.);
#401 = FACE_BOUND('',#402,.F.);
#402 = EDGE_LOOP('',(#403,#404,#410,#411));
#403 = ORIENTED_EDGE('',*,*,#280,.T.);
#404 = ORIENTED_EDGE('',*,*,#405,.T.);
#405 = EDGE_CURVE('',#272,#255,#406,.T.);
#406 = LINE('',#407,#408);
#407 = CARTESIAN_POINT('',(-9.682458365519,-5.,-3.));
#408 = VECTOR('',#409,1.);
#409 = DIRECTION('',(1.,9.300830947085E-49,-1.519290839322E-64));
#410 = ORIENTED_EDGE('',*,*,#254,.F.);
#411 = ORIENTED_EDGE('',*,*,#390,.F.);
#412 = CYLINDRICAL_SURFACE('',#413,0.5);
#413 = AXIS2_PLACEMENT_3D('',#414,#415,#416);
#414 = CARTESIAN_POINT('',(-9.682458365519,-4.5,-3.));
#415 = DIRECTION('',(1.,9.300830947085E-49,-1.519290839322E-64));
#416 = DIRECTION('',(-5.459084937984E-65,2.22044604925E-16,1.));
#417 = ADVANCED_FACE('',(#418),#422,.T.);
#418 = FACE_BOUND('',#419,.T.);
#419 = EDGE_LOOP('',(#420,#421));
#420 = ORIENTED_EDGE('',*,*,#271,.T.);
#421 = ORIENTED_EDGE('',*,*,#405,.T.);
#422 = PLANE('',#423);
#423 = AXIS2_PLACEMENT_3D('',#424,#425,#426);
#424 = CARTESIAN_POINT('',(-1.675510599434E-15,-5.,-6.895345));
#425 = DIRECTION('',(-6.701510949557E-97,1.,-2.22044604925E-16));
#426 = DIRECTION('',(0.,2.22044604925E-16,1.));
#427 = ADVANCED_FACE('',(#428),#438,.F.);
#428 = FACE_BOUND('',#429,.F.);
#429 = EDGE_LOOP('',(#430,#431,#432));
#430 = ORIENTED_EDGE('',*,*,#99,.F.);
#431 = ORIENTED_EDGE('',*,*,#229,.F.);
#432 = ORIENTED_EDGE('',*,*,#433,.F.);
#433 = EDGE_CURVE('',#100,#222,#434,.T.);
#434 = LINE('',#435,#436);
#435 = CARTESIAN_POINT('',(2.5,-15.,12.609953));
#436 = VECTOR('',#437,1.);
#437 = DIRECTION('',(0.,-2.22044604925E-16,-1.));
#438 = PLANE('',#439);
#439 = AXIS2_PLACEMENT_3D('',#440,#441,#442);
#440 = CARTESIAN_POINT('',(-5.469760530158E-16,-15.,3.552713678801E-15)
  );
#441 = DIRECTION('',(-9.300830947085E-49,1.,-2.22044604925E-16));
#442 = DIRECTION('',(0.,2.22044604925E-16,1.));
#443 = ADVANCED_FACE('',(#444),#455,.T.);
#444 = FACE_BOUND('',#445,.T.);
#445 = EDGE_LOOP('',(#446,#447,#448,#449));
#446 = ORIENTED_EDGE('',*,*,#221,.F.);
#447 = ORIENTED_EDGE('',*,*,#433,.F.);
#448 = ORIENTED_EDGE('',*,*,#108,.T.);
#449 = ORIENTED_EDGE('',*,*,#450,.T.);
#450 = EDGE_CURVE('',#109,#205,#451,.T.);
#451 = LINE('',#452,#453);
#452 = CARTESIAN_POINT('',(2.5,-10.5,9.682458365519));
#453 = VECTOR('',#454,1.);
#454 = DIRECTION('',(5.459084937984E-65,-2.22044604925E-16,-1.));
#455 = PLANE('',#456);
#456 = AXIS2_PLACEMENT_3D('',#457,#458,#459);
#457 = CARTESIAN_POINT('',(2.5,-15.,12.609953));
#458 = DIRECTION('',(-1.,-9.300830947085E-49,1.519290839322E-64));
#459 = DIRECTION('',(5.459084937984E-65,-2.22044604925E-16,-1.));
#460 = ADVANCED_FACE('',(#461),#472,.F.);
#461 = FACE_BOUND('',#462,.T.);
#462 = EDGE_LOOP('',(#463,#464,#470,#471));
#463 = ORIENTED_EDGE('',*,*,#116,.T.);
#464 = ORIENTED_EDGE('',*,*,#465,.T.);
#465 = EDGE_CURVE('',#117,#196,#466,.T.);
#466 = LINE('',#467,#468);
#467 = CARTESIAN_POINT('',(2.,-10.,9.682458365519));
#468 = VECTOR('',#469,1.);
#469 = DIRECTION('',(5.459084937984E-65,-2.22044604925E-16,-1.));
#470 = ORIENTED_EDGE('',*,*,#204,.F.);
#471 = ORIENTED_EDGE('',*,*,#450,.F.);
#472 = CYLINDRICAL_SURFACE('',#473,0.5);
#473 = AXIS2_PLACEMENT_3D('',#474,#475,#476);
#474 = CARTESIAN_POINT('',(2.,-10.5,9.682458365519));
#475 = DIRECTION('',(5.459084937984E-65,-2.22044604925E-16,-1.));
#476 = DIRECTION('',(1.,9.300830947085E-49,-1.519290839322E-64));
#477 = ADVANCED_FACE('',(#478),#489,.F.);
#478 = FACE_BOUND('',#479,.F.);
#479 = EDGE_LOOP('',(#480,#481,#487,#488));
#480 = ORIENTED_EDGE('',*,*,#195,.T.);
#481 = ORIENTED_EDGE('',*,*,#482,.T.);
#482 = EDGE_CURVE('',#182,#134,#483,.T.);
#483 = LINE('',#484,#485);
#484 = CARTESIAN_POINT('',(-2.,-10.,-9.682458365519));
#485 = VECTOR('',#486,1.);
#486 = DIRECTION('',(-5.459084937984E-65,2.22044604925E-16,1.));
#487 = ORIENTED_EDGE('',*,*,#133,.T.);
#488 = ORIENTED_EDGE('',*,*,#465,.T.);
#489 = PLANE('',#490);
#490 = AXIS2_PLACEMENT_3D('',#491,#492,#493);
#491 = CARTESIAN_POINT('',(-4.650415473542E-48,-10.,3.552713678801E-15)
  );
#492 = DIRECTION('',(0.,1.,-2.817388517468E-16));
#493 = DIRECTION('',(0.,2.817388517468E-16,1.));
#494 = ADVANCED_FACE('',(#495),#506,.F.);
#495 = FACE_BOUND('',#496,.F.);
#496 = EDGE_LOOP('',(#497,#498,#504,#505));
#497 = ORIENTED_EDGE('',*,*,#181,.T.);
#498 = ORIENTED_EDGE('',*,*,#499,.T.);
#499 = EDGE_CURVE('',#174,#143,#500,.T.);
#500 = LINE('',#501,#502);
#501 = CARTESIAN_POINT('',(-2.5,-10.5,-9.682458365519));
#502 = VECTOR('',#503,1.);
#503 = DIRECTION('',(-5.459084937984E-65,2.22044604925E-16,1.));
#504 = ORIENTED_EDGE('',*,*,#142,.F.);
#505 = ORIENTED_EDGE('',*,*,#482,.F.);
#506 = CYLINDRICAL_SURFACE('',#507,0.5);
#507 = AXIS2_PLACEMENT_3D('',#508,#509,#510);
#508 = CARTESIAN_POINT('',(-2.,-10.5,-9.682458365519));
#509 = DIRECTION('',(-5.459084937984E-65,2.22044604925E-16,1.));
#510 = DIRECTION('',(-3.258759637087E-81,1.,-2.22044604925E-16));
#511 = ADVANCED_FACE('',(#512),#523,.T.);
#512 = FACE_BOUND('',#513,.T.);
#513 = EDGE_LOOP('',(#514,#515,#521,#522));
#514 = ORIENTED_EDGE('',*,*,#156,.F.);
#515 = ORIENTED_EDGE('',*,*,#516,.F.);
#516 = EDGE_CURVE('',#165,#157,#517,.T.);
#517 = LINE('',#518,#519);
#518 = CARTESIAN_POINT('',(-2.5,-15.,-12.609953));
#519 = VECTOR('',#520,1.);
#520 = DIRECTION('',(0.,2.22044604925E-16,1.));
#521 = ORIENTED_EDGE('',*,*,#173,.T.);
#522 = ORIENTED_EDGE('',*,*,#499,.T.);
#523 = PLANE('',#524);
#524 = AXIS2_PLACEMENT_3D('',#525,#526,#527);
#525 = CARTESIAN_POINT('',(-2.5,-15.,-12.609953));
#526 = DIRECTION('',(1.,9.300830947085E-49,-1.519290839322E-64));
#527 = DIRECTION('',(-5.459084937984E-65,2.22044604925E-16,1.));
#528 = ADVANCED_FACE('',(#529),#533,.F.);
#529 = FACE_BOUND('',#530,.F.);
#530 = EDGE_LOOP('',(#531,#532));
#531 = ORIENTED_EDGE('',*,*,#164,.F.);
#532 = ORIENTED_EDGE('',*,*,#516,.F.);
#533 = PLANE('',#534);
#534 = AXIS2_PLACEMENT_3D('',#535,#536,#537);
#535 = CARTESIAN_POINT('',(-5.469760530158E-16,-15.,3.552713678801E-15)
  );
#536 = DIRECTION('',(-9.300830947085E-49,1.,-2.22044604925E-16));
#537 = DIRECTION('',(0.,2.22044604925E-16,1.));
#538 = ( GEOMETRIC_REPRESENTATION_CONTEXT(3) 
GLOBAL_UNCERTAINTY_ASSIGNED_CONTEXT((#542)) GLOBAL_UNIT_ASSIGNED_CONTEXT
((#539,#540,#541)) REPRESENTATION_CONTEXT('Context #1',
  '3D Context with UNIT and UNCERTAINTY') );
#539 = ( LENGTH_UNIT() NAMED_UNIT(*) SI_UNIT(.MILLI.,.METRE.) );
#540 = ( NAMED_UNIT(*) PLANE_ANGLE_UNIT() SI_UNIT($,.RADIAN.) );
#541 = ( NAMED_UNIT(*) SI_UNIT($,.STERADIAN.) SOLID_ANGLE_UNIT() );
#542 = UNCERTAINTY_MEASURE_WITH_UNIT(LENGTH_MEASURE(1.E-07),#539,
  'distance_accuracy_value','confusion accuracy');
#543 = PRODUCT_RELATED_PRODUCT_CATEGORY('part',$,(#7));
#544 = MECHANICAL_DESIGN_GEOMETRIC_PRESENTATION_REPRESENTATION('',(#545)
  ,#538);
#545 = STYLED_ITEM('color',(#546),#15);
#546 = PRESENTATION_STYLE_ASSIGNMENT((#547,#553));
#547 = SURFACE_STYLE_USAGE(.BOTH.,#548);
#548 = SURFACE_SIDE_STYLE('',(#549));
#549 = SURFACE_STYLE_FILL_AREA(#550);
#550 = FILL_AREA_STYLE('',(#551));
#551 = FILL_AREA_STYLE_COLOUR('',#552);
#552 = COLOUR_RGB('',0.800000010877,0.800000010877,0.800000010877);
#553 = CURVE_STYLE('',#554,POSITIVE_LENGTH_MEASURE(0.1),#555);
#554 = DRAUGHTING_PRE_DEFINED_CURVE_FONT('continuous');
#555 = COLOUR_RGB('',9.803921802644E-02,9.803921802644E-02,
  9.803921802644E-02);
ENDSEC;
END-ISO-10303-21;
