ISO-10303-21;
HEADER;
/* Generated by software containing ST-Developer
 * from STEP Tools, Inc. (www.steptools.com) 
 */

FILE_DESCRIPTION(
/* description */ (''),
/* implementation_level */ '2;1');

FILE_NAME(
/* name */ 'L:/Pieces pour usinage/Tige p\X\E9dale.step',
/* time_stamp */ '2023-09-07T17:20:12+02:00',
/* author */ (''),
/* organization */ (''),
/* preprocessor_version */ 'ST-DEVELOPER v18.1',
/* originating_system */ 'Autodesk Translation Framework v10.13.0.1454',

/* authorisation */ '');

FILE_SCHEMA (('AUTOMOTIVE_DESIGN { 1 0 10303 214 3 1 1 }'));
ENDSEC;

DATA;
#10=MECHANICAL_DESIGN_GEOMETRIC_PRESENTATION_REPRESENTATION('',(#13),#349);
#11=SHAPE_REPRESENTATION_RELATIONSHIP('SRR','None',#356,#12);
#12=ADVANCED_BREP_SHAPE_REPRESENTATION('',(#14),#348);
#13=STYLED_ITEM('',(#365),#14);
#14=MANIFOLD_SOLID_BREP('Corps1',#196);
#15=PLANE('',#217);
#16=PLANE('',#218);
#17=PLANE('',#219);
#18=PLANE('',#220);
#19=PLANE('',#224);
#20=PLANE('',#230);
#21=CYLINDRICAL_SURFACE('',#214,4.075);
#22=CYLINDRICAL_SURFACE('',#222,7.5);
#23=CYLINDRICAL_SURFACE('',#228,9.5);
#24=FACE_OUTER_BOUND('',#35,.T.);
#25=FACE_OUTER_BOUND('',#36,.T.);
#26=FACE_OUTER_BOUND('',#37,.T.);
#27=FACE_OUTER_BOUND('',#38,.T.);
#28=FACE_OUTER_BOUND('',#39,.T.);
#29=FACE_OUTER_BOUND('',#40,.T.);
#30=FACE_OUTER_BOUND('',#41,.T.);
#31=FACE_OUTER_BOUND('',#42,.T.);
#32=FACE_OUTER_BOUND('',#43,.T.);
#33=FACE_OUTER_BOUND('',#44,.T.);
#34=FACE_OUTER_BOUND('',#45,.T.);
#35=EDGE_LOOP('',(#131,#132,#133,#134,#135));
#36=EDGE_LOOP('',(#136,#137,#138,#139,#140,#141,#142,#143));
#37=EDGE_LOOP('',(#144));
#38=EDGE_LOOP('',(#145,#146,#147,#148,#149,#150,#151));
#39=EDGE_LOOP('',(#152,#153,#154,#155,#156,#157,#158));
#40=EDGE_LOOP('',(#159,#160,#161,#162));
#41=EDGE_LOOP('',(#163,#164,#165,#166));
#42=EDGE_LOOP('',(#167,#168,#169,#170));
#43=EDGE_LOOP('',(#171,#172,#173,#174));
#44=EDGE_LOOP('',(#175,#176,#177,#178));
#45=EDGE_LOOP('',(#179,#180,#181,#182));
#46=LINE('',#296,#62);
#47=LINE('',#302,#63);
#48=LINE('',#306,#64);
#49=LINE('',#309,#65);
#50=LINE('',#313,#66);
#51=LINE('',#315,#67);
#52=LINE('',#317,#68);
#53=LINE('',#319,#69);
#54=LINE('',#321,#70);
#55=LINE('',#322,#71);
#56=LINE('',#325,#72);
#57=LINE('',#327,#73);
#58=LINE('',#329,#74);
#59=LINE('',#331,#75);
#60=LINE('',#333,#76);
#61=LINE('',#334,#77);
#62=VECTOR('',#237,3.675);
#63=VECTOR('',#244,4.075);
#64=VECTOR('',#247,10.);
#65=VECTOR('',#250,10.);
#66=VECTOR('',#255,10.);
#67=VECTOR('',#256,10.);
#68=VECTOR('',#257,10.);
#69=VECTOR('',#258,10.);
#70=VECTOR('',#259,10.);
#71=VECTOR('',#260,10.);
#72=VECTOR('',#263,10.);
#73=VECTOR('',#264,10.);
#74=VECTOR('',#265,10.);
#75=VECTOR('',#266,10.);
#76=VECTOR('',#267,10.);
#77=VECTOR('',#268,10.);
#78=CIRCLE('',#211,3.275);
#79=CIRCLE('',#212,4.075);
#80=CIRCLE('',#213,4.075);
#81=CIRCLE('',#215,4.075);
#82=CIRCLE('',#216,4.075);
#83=CIRCLE('',#221,7.5);
#84=CIRCLE('',#223,7.5);
#85=CIRCLE('',#225,8.9);
#86=CIRCLE('',#227,9.5);
#87=CIRCLE('',#229,9.5);
#88=VERTEX_POINT('',#293);
#89=VERTEX_POINT('',#295);
#90=VERTEX_POINT('',#297);
#91=VERTEX_POINT('',#301);
#92=VERTEX_POINT('',#303);
#93=VERTEX_POINT('',#305);
#94=VERTEX_POINT('',#307);
#95=VERTEX_POINT('',#312);
#96=VERTEX_POINT('',#314);
#97=VERTEX_POINT('',#316);
#98=VERTEX_POINT('',#318);
#99=VERTEX_POINT('',#320);
#100=VERTEX_POINT('',#324);
#101=VERTEX_POINT('',#326);
#102=VERTEX_POINT('',#328);
#103=VERTEX_POINT('',#330);
#104=VERTEX_POINT('',#332);
#105=EDGE_CURVE('',#88,#88,#78,.T.);
#106=EDGE_CURVE('',#88,#89,#46,.T.);
#107=EDGE_CURVE('',#89,#90,#79,.T.);
#108=EDGE_CURVE('',#90,#89,#80,.T.);
#109=EDGE_CURVE('',#90,#91,#47,.T.);
#110=EDGE_CURVE('',#92,#91,#81,.T.);
#111=EDGE_CURVE('',#93,#92,#48,.T.);
#112=EDGE_CURVE('',#94,#93,#82,.T.);
#113=EDGE_CURVE('',#91,#94,#49,.T.);
#114=EDGE_CURVE('',#94,#95,#50,.T.);
#115=EDGE_CURVE('',#95,#96,#51,.T.);
#116=EDGE_CURVE('',#96,#97,#52,.T.);
#117=EDGE_CURVE('',#97,#98,#53,.T.);
#118=EDGE_CURVE('',#98,#99,#54,.T.);
#119=EDGE_CURVE('',#99,#91,#55,.T.);
#120=EDGE_CURVE('',#92,#100,#56,.T.);
#121=EDGE_CURVE('',#100,#101,#57,.T.);
#122=EDGE_CURVE('',#101,#102,#58,.T.);
#123=EDGE_CURVE('',#102,#103,#59,.T.);
#124=EDGE_CURVE('',#103,#104,#60,.T.);
#125=EDGE_CURVE('',#104,#93,#61,.T.);
#126=EDGE_CURVE('',#99,#100,#83,.T.);
#127=EDGE_CURVE('',#101,#98,#84,.T.);
#128=EDGE_CURVE('',#102,#97,#85,.T.);
#129=EDGE_CURVE('',#96,#103,#86,.T.);
#130=EDGE_CURVE('',#104,#95,#87,.T.);
#131=ORIENTED_EDGE('',*,*,#105,.T.);
#132=ORIENTED_EDGE('',*,*,#106,.T.);
#133=ORIENTED_EDGE('',*,*,#107,.T.);
#134=ORIENTED_EDGE('',*,*,#108,.T.);
#135=ORIENTED_EDGE('',*,*,#106,.F.);
#136=ORIENTED_EDGE('',*,*,#107,.F.);
#137=ORIENTED_EDGE('',*,*,#108,.F.);
#138=ORIENTED_EDGE('',*,*,#109,.T.);
#139=ORIENTED_EDGE('',*,*,#110,.F.);
#140=ORIENTED_EDGE('',*,*,#111,.F.);
#141=ORIENTED_EDGE('',*,*,#112,.F.);
#142=ORIENTED_EDGE('',*,*,#113,.F.);
#143=ORIENTED_EDGE('',*,*,#109,.F.);
#144=ORIENTED_EDGE('',*,*,#105,.F.);
#145=ORIENTED_EDGE('',*,*,#113,.T.);
#146=ORIENTED_EDGE('',*,*,#114,.T.);
#147=ORIENTED_EDGE('',*,*,#115,.T.);
#148=ORIENTED_EDGE('',*,*,#116,.T.);
#149=ORIENTED_EDGE('',*,*,#117,.T.);
#150=ORIENTED_EDGE('',*,*,#118,.T.);
#151=ORIENTED_EDGE('',*,*,#119,.T.);
#152=ORIENTED_EDGE('',*,*,#111,.T.);
#153=ORIENTED_EDGE('',*,*,#120,.T.);
#154=ORIENTED_EDGE('',*,*,#121,.T.);
#155=ORIENTED_EDGE('',*,*,#122,.T.);
#156=ORIENTED_EDGE('',*,*,#123,.T.);
#157=ORIENTED_EDGE('',*,*,#124,.T.);
#158=ORIENTED_EDGE('',*,*,#125,.T.);
#159=ORIENTED_EDGE('',*,*,#110,.T.);
#160=ORIENTED_EDGE('',*,*,#119,.F.);
#161=ORIENTED_EDGE('',*,*,#126,.T.);
#162=ORIENTED_EDGE('',*,*,#120,.F.);
#163=ORIENTED_EDGE('',*,*,#118,.F.);
#164=ORIENTED_EDGE('',*,*,#127,.F.);
#165=ORIENTED_EDGE('',*,*,#121,.F.);
#166=ORIENTED_EDGE('',*,*,#126,.F.);
#167=ORIENTED_EDGE('',*,*,#117,.F.);
#168=ORIENTED_EDGE('',*,*,#128,.F.);
#169=ORIENTED_EDGE('',*,*,#122,.F.);
#170=ORIENTED_EDGE('',*,*,#127,.T.);
#171=ORIENTED_EDGE('',*,*,#116,.F.);
#172=ORIENTED_EDGE('',*,*,#129,.T.);
#173=ORIENTED_EDGE('',*,*,#123,.F.);
#174=ORIENTED_EDGE('',*,*,#128,.T.);
#175=ORIENTED_EDGE('',*,*,#115,.F.);
#176=ORIENTED_EDGE('',*,*,#130,.F.);
#177=ORIENTED_EDGE('',*,*,#124,.F.);
#178=ORIENTED_EDGE('',*,*,#129,.F.);
#179=ORIENTED_EDGE('',*,*,#125,.F.);
#180=ORIENTED_EDGE('',*,*,#130,.T.);
#181=ORIENTED_EDGE('',*,*,#114,.F.);
#182=ORIENTED_EDGE('',*,*,#112,.T.);
#183=CONICAL_SURFACE('',#210,3.675,0.610865238198016);
#184=CONICAL_SURFACE('',#226,9.2,0.785398163397448);
#185=ADVANCED_FACE('',(#24),#183,.T.);
#186=ADVANCED_FACE('',(#25),#21,.T.);
#187=ADVANCED_FACE('',(#26),#15,.T.);
#188=ADVANCED_FACE('',(#27),#16,.T.);
#189=ADVANCED_FACE('',(#28),#17,.T.);
#190=ADVANCED_FACE('',(#29),#18,.T.);
#191=ADVANCED_FACE('',(#30),#22,.T.);
#192=ADVANCED_FACE('',(#31),#19,.T.);
#193=ADVANCED_FACE('',(#32),#184,.T.);
#194=ADVANCED_FACE('',(#33),#23,.T.);
#195=ADVANCED_FACE('',(#34),#20,.T.);
#196=CLOSED_SHELL('',(#185,#186,#187,#188,#189,#190,#191,#192,#193,#194,
#195));
#197=DERIVED_UNIT_ELEMENT(#199,1.);
#198=DERIVED_UNIT_ELEMENT(#351,-3.);
#199=(
MASS_UNIT()
NAMED_UNIT(*)
SI_UNIT(.KILO.,.GRAM.)
);
#200=DERIVED_UNIT((#197,#198));
#201=MEASURE_REPRESENTATION_ITEM('density measure',
POSITIVE_RATIO_MEASURE(7850.),#200);
#202=PROPERTY_DEFINITION_REPRESENTATION(#207,#204);
#203=PROPERTY_DEFINITION_REPRESENTATION(#208,#205);
#204=REPRESENTATION('material name',(#206),#348);
#205=REPRESENTATION('density',(#201),#348);
#206=DESCRIPTIVE_REPRESENTATION_ITEM('Acier','Acier');
#207=PROPERTY_DEFINITION('material property','material name',#358);
#208=PROPERTY_DEFINITION('material property','density of part',#358);
#209=AXIS2_PLACEMENT_3D('placement',#291,#231,#232);
#210=AXIS2_PLACEMENT_3D('',#292,#233,#234);
#211=AXIS2_PLACEMENT_3D('',#294,#235,#236);
#212=AXIS2_PLACEMENT_3D('',#298,#238,#239);
#213=AXIS2_PLACEMENT_3D('',#299,#240,#241);
#214=AXIS2_PLACEMENT_3D('',#300,#242,#243);
#215=AXIS2_PLACEMENT_3D('',#304,#245,#246);
#216=AXIS2_PLACEMENT_3D('',#308,#248,#249);
#217=AXIS2_PLACEMENT_3D('',#310,#251,#252);
#218=AXIS2_PLACEMENT_3D('',#311,#253,#254);
#219=AXIS2_PLACEMENT_3D('',#323,#261,#262);
#220=AXIS2_PLACEMENT_3D('',#335,#269,#270);
#221=AXIS2_PLACEMENT_3D('',#336,#271,#272);
#222=AXIS2_PLACEMENT_3D('',#337,#273,#274);
#223=AXIS2_PLACEMENT_3D('',#338,#275,#276);
#224=AXIS2_PLACEMENT_3D('',#339,#277,#278);
#225=AXIS2_PLACEMENT_3D('',#340,#279,#280);
#226=AXIS2_PLACEMENT_3D('',#341,#281,#282);
#227=AXIS2_PLACEMENT_3D('',#342,#283,#284);
#228=AXIS2_PLACEMENT_3D('',#343,#285,#286);
#229=AXIS2_PLACEMENT_3D('',#344,#287,#288);
#230=AXIS2_PLACEMENT_3D('',#345,#289,#290);
#231=DIRECTION('axis',(0.,0.,1.));
#232=DIRECTION('refdir',(1.,0.,0.));
#233=DIRECTION('center_axis',(0.,0.,-1.));
#234=DIRECTION('ref_axis',(-1.,0.,0.));
#235=DIRECTION('center_axis',(0.,0.,-1.));
#236=DIRECTION('ref_axis',(-1.,0.,0.));
#237=DIRECTION('',(0.573576436351046,7.02428546843654E-17,-0.819152044288992));
#238=DIRECTION('center_axis',(0.,0.,1.));
#239=DIRECTION('ref_axis',(-1.,0.,0.));
#240=DIRECTION('center_axis',(0.,0.,1.));
#241=DIRECTION('ref_axis',(-1.,0.,0.));
#242=DIRECTION('center_axis',(0.,0.,1.));
#243=DIRECTION('ref_axis',(1.,0.,0.));
#244=DIRECTION('',(0.,0.,-1.));
#245=DIRECTION('center_axis',(0.,0.,-1.));
#246=DIRECTION('ref_axis',(1.,0.,0.));
#247=DIRECTION('',(0.,0.,1.));
#248=DIRECTION('center_axis',(0.,0.,-1.));
#249=DIRECTION('ref_axis',(1.,0.,0.));
#250=DIRECTION('',(0.,0.,-1.));
#251=DIRECTION('center_axis',(0.,0.,1.));
#252=DIRECTION('ref_axis',(1.,0.,0.));
#253=DIRECTION('center_axis',(0.,1.,0.));
#254=DIRECTION('ref_axis',(0.,0.,1.));
#255=DIRECTION('',(-1.,0.,0.));
#256=DIRECTION('',(0.,0.,1.));
#257=DIRECTION('',(0.707106781186547,0.,0.707106781186548));
#258=DIRECTION('',(1.,0.,0.));
#259=DIRECTION('',(0.,0.,1.));
#260=DIRECTION('',(1.,0.,0.));
#261=DIRECTION('center_axis',(0.,1.,0.));
#262=DIRECTION('ref_axis',(0.,0.,1.));
#263=DIRECTION('',(1.,0.,0.));
#264=DIRECTION('',(0.,0.,-1.));
#265=DIRECTION('',(1.,0.,0.));
#266=DIRECTION('',(0.707106781186547,0.,-0.707106781186548));
#267=DIRECTION('',(0.,0.,-1.));
#268=DIRECTION('',(-1.,0.,0.));
#269=DIRECTION('center_axis',(0.,0.,1.));
#270=DIRECTION('ref_axis',(1.,0.,0.));
#271=DIRECTION('center_axis',(0.,0.,1.));
#272=DIRECTION('ref_axis',(1.,0.,0.));
#273=DIRECTION('center_axis',(0.,0.,1.));
#274=DIRECTION('ref_axis',(1.,0.,0.));
#275=DIRECTION('center_axis',(0.,0.,-1.));
#276=DIRECTION('ref_axis',(1.,0.,0.));
#277=DIRECTION('center_axis',(0.,0.,1.));
#278=DIRECTION('ref_axis',(1.,0.,0.));
#279=DIRECTION('center_axis',(0.,0.,-1.));
#280=DIRECTION('ref_axis',(-1.,0.,0.));
#281=DIRECTION('center_axis',(0.,0.,-1.));
#282=DIRECTION('ref_axis',(-1.,0.,0.));
#283=DIRECTION('center_axis',(0.,0.,1.));
#284=DIRECTION('ref_axis',(-1.,0.,0.));
#285=DIRECTION('center_axis',(0.,0.,1.));
#286=DIRECTION('ref_axis',(1.,0.,0.));
#287=DIRECTION('center_axis',(0.,0.,-1.));
#288=DIRECTION('ref_axis',(1.,0.,0.));
#289=DIRECTION('center_axis',(0.,0.,-1.));
#290=DIRECTION('ref_axis',(-1.,0.,0.));
#291=CARTESIAN_POINT('',(0.,0.,0.));
#292=CARTESIAN_POINT('Origin',(0.,0.,19.4287407973032));
#293=CARTESIAN_POINT('',(3.275,-4.01071826720758E-16,20.));
#294=CARTESIAN_POINT('Origin',(0.,0.,20.));
#295=CARTESIAN_POINT('',(4.075,4.99043570652546E-16,18.8574815946063));
#296=CARTESIAN_POINT('',(3.675,4.50057698686652E-16,19.4287407973032));
#297=CARTESIAN_POINT('',(-4.075,-4.99043570652546E-16,18.8574815946063));
#298=CARTESIAN_POINT('Origin',(0.,0.,18.8574815946063));
#299=CARTESIAN_POINT('Origin',(0.,0.,18.8574815946063));
#300=CARTESIAN_POINT('Origin',(0.,0.,11.5));
#301=CARTESIAN_POINT('',(-4.075,0.,3.));
#302=CARTESIAN_POINT('',(-4.075,-4.99043570652546E-16,11.5));
#303=CARTESIAN_POINT('',(4.075,0.,3.));
#304=CARTESIAN_POINT('Origin',(0.,0.,3.));
#305=CARTESIAN_POINT('',(4.075,0.,0.));
#306=CARTESIAN_POINT('',(4.075,0.,3.));
#307=CARTESIAN_POINT('',(-4.075,0.,0.));
#308=CARTESIAN_POINT('Origin',(0.,0.,0.));
#309=CARTESIAN_POINT('',(-4.075,0.,3.));
#310=CARTESIAN_POINT('Origin',(0.,0.,20.));
#311=CARTESIAN_POINT('Origin',(0.,0.,1.5));
#312=CARTESIAN_POINT('',(-9.5,0.,0.));
#313=CARTESIAN_POINT('',(0.,0.,0.));
#314=CARTESIAN_POINT('',(-9.5,0.,0.9));
#315=CARTESIAN_POINT('',(-9.5,0.,0.75));
#316=CARTESIAN_POINT('',(-8.9,0.,1.5));
#317=CARTESIAN_POINT('',(-9.2,0.,1.2));
#318=CARTESIAN_POINT('',(-7.5,0.,1.5));
#319=CARTESIAN_POINT('',(0.,0.,1.5));
#320=CARTESIAN_POINT('',(-7.5,0.,3.));
#321=CARTESIAN_POINT('',(-7.5,0.,2.25));
#322=CARTESIAN_POINT('',(0.,0.,3.));
#323=CARTESIAN_POINT('Origin',(0.,0.,1.5));
#324=CARTESIAN_POINT('',(7.5,-1.11022302462516E-15,3.));
#325=CARTESIAN_POINT('',(0.,0.,3.));
#326=CARTESIAN_POINT('',(7.5,-1.11022302462516E-15,1.5));
#327=CARTESIAN_POINT('',(7.5,0.,2.25));
#328=CARTESIAN_POINT('',(8.9,-1.08993565124114E-15,1.5));
#329=CARTESIAN_POINT('',(0.,0.,1.5));
#330=CARTESIAN_POINT('',(9.5,1.16341445918999E-15,0.9));
#331=CARTESIAN_POINT('',(9.2,0.,1.2));
#332=CARTESIAN_POINT('',(9.5,0.,0.));
#333=CARTESIAN_POINT('',(9.5,0.,0.75));
#334=CARTESIAN_POINT('',(0.,0.,0.));
#335=CARTESIAN_POINT('Origin',(0.,-1.11022302462516E-15,3.));
#336=CARTESIAN_POINT('Origin',(0.,-1.11022302462516E-15,3.));
#337=CARTESIAN_POINT('Origin',(0.,-1.11022302462516E-15,2.25));
#338=CARTESIAN_POINT('Origin',(0.,-1.11022302462516E-15,1.5));
#339=CARTESIAN_POINT('Origin',(0.,0.,1.5));
#340=CARTESIAN_POINT('Origin',(0.,0.,1.5));
#341=CARTESIAN_POINT('Origin',(0.,0.,1.2));
#342=CARTESIAN_POINT('Origin',(0.,0.,0.9));
#343=CARTESIAN_POINT('Origin',(0.,0.,0.75));
#344=CARTESIAN_POINT('Origin',(0.,0.,0.));
#345=CARTESIAN_POINT('Origin',(0.,0.,0.));
#346=UNCERTAINTY_MEASURE_WITH_UNIT(LENGTH_MEASURE(0.01),#350,
'DISTANCE_ACCURACY_VALUE',
'Maximum model space distance between geometric entities at asserted c
onnectivities');
#347=UNCERTAINTY_MEASURE_WITH_UNIT(LENGTH_MEASURE(0.01),#350,
'DISTANCE_ACCURACY_VALUE',
'Maximum model space distance between geometric entities at asserted c
onnectivities');
#348=(
GEOMETRIC_REPRESENTATION_CONTEXT(3)
GLOBAL_UNCERTAINTY_ASSIGNED_CONTEXT((#346))
GLOBAL_UNIT_ASSIGNED_CONTEXT((#350,#352,#353))
REPRESENTATION_CONTEXT('','3D')
);
#349=(
GEOMETRIC_REPRESENTATION_CONTEXT(3)
GLOBAL_UNCERTAINTY_ASSIGNED_CONTEXT((#347))
GLOBAL_UNIT_ASSIGNED_CONTEXT((#350,#352,#353))
REPRESENTATION_CONTEXT('','3D')
);
#350=(
LENGTH_UNIT()
NAMED_UNIT(*)
SI_UNIT(.MILLI.,.METRE.)
);
#351=(
LENGTH_UNIT()
NAMED_UNIT(*)
SI_UNIT($,.METRE.)
);
#352=(
NAMED_UNIT(*)
PLANE_ANGLE_UNIT()
SI_UNIT($,.RADIAN.)
);
#353=(
NAMED_UNIT(*)
SI_UNIT($,.STERADIAN.)
SOLID_ANGLE_UNIT()
);
#354=SHAPE_DEFINITION_REPRESENTATION(#355,#356);
#355=PRODUCT_DEFINITION_SHAPE('',$,#358);
#356=SHAPE_REPRESENTATION('',(#209),#348);
#357=PRODUCT_DEFINITION_CONTEXT('part definition',#362,'design');
#358=PRODUCT_DEFINITION('Sans nom','Sans nom v1',#359,#357);
#359=PRODUCT_DEFINITION_FORMATION('',$,#364);
#360=PRODUCT_RELATED_PRODUCT_CATEGORY('Sans nom v1','Sans nom v1',(#364));
#361=APPLICATION_PROTOCOL_DEFINITION('international standard',
'automotive_design',2009,#362);
#362=APPLICATION_CONTEXT(
'Core Data for Automotive Mechanical Design Process');
#363=PRODUCT_CONTEXT('part definition',#362,'mechanical');
#364=PRODUCT('Sans nom','Sans nom v1',$,(#363));
#365=PRESENTATION_STYLE_ASSIGNMENT((#366));
#366=SURFACE_STYLE_USAGE(.BOTH.,#367);
#367=SURFACE_SIDE_STYLE('',(#368));
#368=SURFACE_STYLE_FILL_AREA(#369);
#369=FILL_AREA_STYLE('Acier - Satin\X\E9',(#370));
#370=FILL_AREA_STYLE_COLOUR('Acier - Satin\X\E9',#371);
#371=COLOUR_RGB('Acier - Satin\X\E9',0.627450980392157,0.627450980392157,
0.627450980392157);
ENDSEC;
END-ISO-10303-21;
