ISO-10303-21;
HEADER;
FILE_DESCRIPTION(('Creo Elements/Direct Modeling STEP Export'),'2;1');
FILE_NAME('00014985 BRIDE DOUBLE ENVELOPPE CUISINE A COLLE.stp',
'2023-10-25T13:50:46',(''),(''),
'Creo Elements/Direct Modeling STEP processor for AP214 (Solid Model)',
'Creo Elements/Direct Modeling 20.5  09-Apr-2022 (C) Parametric Technolo
gy GmbH','');
FILE_SCHEMA(('AUTOMOTIVE_DESIGN { 1 0 10303 214 1 1 1 1 }'));
ENDSEC;
DATA;
#10=CARTESIAN_POINT('',(-485.75,0.,1541.74853409732));
#20=DIRECTION('',(0.,0.,-1.));
#30=DIRECTION('',(1.,0.,0.));
#40=AXIS2_PLACEMENT_3D('',#10,#20,#30);
#50=PLANE('',#40);
#60=CARTESIAN_POINT('',(0.,0.,1541.74853409732));
#70=DIRECTION('',(0.,0.,-1.));
#80=DIRECTION('',(1.,0.,0.));
#90=AXIS2_PLACEMENT_3D('',#60,#70,#80);
#100=CIRCLE('',#90,474.5);
#110=CARTESIAN_POINT('',(474.5,0.,1541.74853409732));
#120=VERTEX_POINT('',#110);
#130=CARTESIAN_POINT('',(-474.5,-5.81094906195419E-14,1541.74853409732))
;
#140=VERTEX_POINT('',#130);
#150=EDGE_CURVE('',#120,#140,#100,.T.);
#160=ORIENTED_EDGE('',*,*,#150,.F.);
#170=EDGE_CURVE('',#140,#120,#100,.T.);
#180=ORIENTED_EDGE('',*,*,#170,.F.);
#190=EDGE_LOOP('',(#180,#160));
#200=FACE_BOUND('',#190,.T.);
#210=CARTESIAN_POINT('',(0.,0.,1541.74853409732));
#220=DIRECTION('',(0.,0.,-1.));
#230=DIRECTION('',(1.,0.,0.));
#240=AXIS2_PLACEMENT_3D('',#210,#220,#230);
#250=CIRCLE('',#240,498.272059531468);
#260=CARTESIAN_POINT('',(-498.272059531468,0.,1541.74853409732));
#270=VERTEX_POINT('',#260);
#280=CARTESIAN_POINT('',(498.272059531468,-6.10207282809771E-14,
1541.74853409732));
#290=VERTEX_POINT('',#280);
#300=EDGE_CURVE('',#270,#290,#250,.T.);
#310=ORIENTED_EDGE('',*,*,#300,.T.);
#320=EDGE_CURVE('',#290,#270,#250,.T.);
#330=ORIENTED_EDGE('',*,*,#320,.T.);
#340=EDGE_LOOP('',(#330,#310));
#350=FACE_OUTER_BOUND('',#340,.T.);
#360=ADVANCED_FACE('',(#200,#350),#50,.T.);
#370=CARTESIAN_POINT('',(0.,0.,1543.24853409732));
#380=DIRECTION('',(0.,0.,1.));
#390=DIRECTION('',(-1.,0.,0.));
#400=AXIS2_PLACEMENT_3D('',#370,#380,#390);
#410=CYLINDRICAL_SURFACE('',#400,499.);
#420=CARTESIAN_POINT('',(499.,-6.11098752774529E-14,1543.24853409732));
#430=DIRECTION('',(0.,0.,1.));
#440=VECTOR('',#430,1.);
#450=LINE('',#420,#440);
#460=CARTESIAN_POINT('',(499.,-6.11098752774529E-14,1543.74853409732));
#470=VERTEX_POINT('',#460);
#480=CARTESIAN_POINT('',(499.,-6.11098752774529E-14,1544.74853409732));
#490=VERTEX_POINT('',#480);
#500=EDGE_CURVE('',#470,#490,#450,.T.);
#510=ORIENTED_EDGE('',*,*,#500,.T.);
#520=CARTESIAN_POINT('',(0.,0.,1543.74853409732));
#530=DIRECTION('',(0.,0.,-1.));
#540=DIRECTION('',(1.,0.,0.));
#550=AXIS2_PLACEMENT_3D('',#520,#530,#540);
#560=CIRCLE('',#550,499.);
#570=CARTESIAN_POINT('',(-499.,0.,1543.74853409732));
#580=VERTEX_POINT('',#570);
#590=EDGE_CURVE('',#470,#580,#560,.T.);
#600=ORIENTED_EDGE('',*,*,#590,.F.);
#610=CARTESIAN_POINT('',(-499.,0.,1543.24853409732));
#620=DIRECTION('',(0.,0.,1.));
#630=VECTOR('',#620,1.);
#640=LINE('',#610,#630);
#650=CARTESIAN_POINT('',(-499.,0.,1544.74853409732));
#660=VERTEX_POINT('',#650);
#670=EDGE_CURVE('',#580,#660,#640,.T.);
#680=ORIENTED_EDGE('',*,*,#670,.F.);
#690=CARTESIAN_POINT('',(0.,0.,1544.74853409732));
#700=DIRECTION('',(0.,0.,-1.));
#710=DIRECTION('',(-1.,0.,0.));
#720=AXIS2_PLACEMENT_3D('',#690,#700,#710);
#730=CIRCLE('',#720,499.);
#740=EDGE_CURVE('',#490,#660,#730,.T.);
#750=ORIENTED_EDGE('',*,*,#740,.T.);
#760=EDGE_LOOP('',(#750,#680,#600,#510));
#770=FACE_OUTER_BOUND('',#760,.T.);
#780=ADVANCED_FACE('',(#770),#410,.T.);
#790=CARTESIAN_POINT('',(0.,0.,1548.24957178837));
#800=DIRECTION('',(0.,0.,1.));
#810=DIRECTION('',(-1.,0.,0.));
#820=AXIS2_PLACEMENT_3D('',#790,#800,#810);
#830=CONICAL_SURFACE('',#820,504.,0.959931088596875);
#840=CARTESIAN_POINT('',(504.,-6.17221986770266E-14,1548.24957178837));
#850=DIRECTION('',(0.819152044288988,-1.00317192905352E-16,
0.573576436351051));
#860=VECTOR('',#850,615.270392735776);
#870=LINE('',#840,#860);
#880=CARTESIAN_POINT('',(504.,-6.17221986770266E-14,1548.24957178837));
#890=VERTEX_POINT('',#880);
#900=EDGE_CURVE('',#490,#890,#870,.T.);
#910=ORIENTED_EDGE('',*,*,#900,.T.);
#920=ORIENTED_EDGE('',*,*,#740,.F.);
#930=CARTESIAN_POINT('',(-504.,0.,1548.24957178837));
#940=DIRECTION('',(-0.819152044288988,0.,0.573576436351051));
#950=VECTOR('',#940,615.270392735776);
#960=LINE('',#930,#950);
#970=CARTESIAN_POINT('',(-504.,0.,1548.24957178837));
#980=VERTEX_POINT('',#970);
#990=EDGE_CURVE('',#660,#980,#960,.T.);
#1000=ORIENTED_EDGE('',*,*,#990,.F.);
#1010=CARTESIAN_POINT('',(0.,0.,1548.24957178837));
#1020=DIRECTION('',(0.,0.,-1.));
#1030=DIRECTION('',(-1.,0.,0.));
#1040=AXIS2_PLACEMENT_3D('',#1010,#1020,#1030);
#1050=CIRCLE('',#1040,504.);
#1060=EDGE_CURVE('',#890,#980,#1050,.T.);
#1070=ORIENTED_EDGE('',*,*,#1060,.T.);
#1080=EDGE_LOOP('',(#1070,#1000,#920,#910));
#1090=FACE_OUTER_BOUND('',#1080,.T.);
#1100=ADVANCED_FACE('',(#1090),#830,.T.);
#1110=CARTESIAN_POINT('',(0.,0.,1556.49905294285));
#1120=DIRECTION('',(0.,0.,1.));
#1130=DIRECTION('',(-1.,0.,0.));
#1140=AXIS2_PLACEMENT_3D('',#1110,#1120,#1130);
#1150=CYLINDRICAL_SURFACE('',#1140,504.);
#1160=CARTESIAN_POINT('',(-504.,0.,1556.49905294285));
#1170=DIRECTION('',(0.,0.,1.));
#1180=VECTOR('',#1170,1.);
#1190=LINE('',#1160,#1180);
#1200=CARTESIAN_POINT('',(-504.,0.,1563.24853409732));
#1210=VERTEX_POINT('',#1200);
#1220=EDGE_CURVE('',#980,#1210,#1190,.T.);
#1230=ORIENTED_EDGE('',*,*,#1220,.T.);
#1240=EDGE_CURVE('',#980,#890,#1050,.T.);
#1250=ORIENTED_EDGE('',*,*,#1240,.F.);
#1260=CARTESIAN_POINT('',(504.,-6.17221986770266E-14,1556.49905294285));
#1270=DIRECTION('',(0.,0.,1.));
#1280=VECTOR('',#1270,1.);
#1290=LINE('',#1260,#1280);
#1300=CARTESIAN_POINT('',(504.,-6.17221986770266E-14,1563.24853409732));
#1310=VERTEX_POINT('',#1300);
#1320=EDGE_CURVE('',#890,#1310,#1290,.T.);
#1330=ORIENTED_EDGE('',*,*,#1320,.F.);
#1340=CARTESIAN_POINT('',(0.,0.,1563.24853409732));
#1350=DIRECTION('',(0.,0.,1.));
#1360=DIRECTION('',(-1.,0.,0.));
#1370=AXIS2_PLACEMENT_3D('',#1340,#1350,#1360);
#1380=CIRCLE('',#1370,504.);
#1390=EDGE_CURVE('',#1310,#1210,#1380,.T.);
#1400=ORIENTED_EDGE('',*,*,#1390,.F.);
#1410=EDGE_LOOP('',(#1400,#1330,#1250,#1230));
#1420=FACE_OUTER_BOUND('',#1410,.T.);
#1430=ADVANCED_FACE('',(#1420),#1150,.T.);
#1440=CARTESIAN_POINT('',(-488.25,0.,1564.74853409732));
#1450=DIRECTION('',(0.,0.,-1.));
#1460=DIRECTION('',(1.,0.,0.));
#1470=AXIS2_PLACEMENT_3D('',#1440,#1450,#1460);
#1480=PLANE('',#1470);
#1490=CARTESIAN_POINT('',(0.,0.,1564.74853409732));
#1500=DIRECTION('',(0.,0.,-1.));
#1510=DIRECTION('',(1.,0.,0.));
#1520=AXIS2_PLACEMENT_3D('',#1490,#1500,#1510);
#1530=CIRCLE('',#1520,474.5);
#1540=CARTESIAN_POINT('',(474.5,-5.81094906195419E-14,1564.74853409732))
;
#1550=VERTEX_POINT('',#1540);
#1560=CARTESIAN_POINT('',(-474.5,0.,1564.74853409732));
#1570=VERTEX_POINT('',#1560);
#1580=EDGE_CURVE('',#1550,#1570,#1530,.T.);
#1590=ORIENTED_EDGE('',*,*,#1580,.T.);
#1600=EDGE_CURVE('',#1570,#1550,#1530,.T.);
#1610=ORIENTED_EDGE('',*,*,#1600,.T.);
#1620=EDGE_LOOP('',(#1610,#1590));
#1630=FACE_BOUND('',#1620,.T.);
#1640=CARTESIAN_POINT('',(0.,0.,1564.74853409732));
#1650=DIRECTION('',(0.,0.,1.));
#1660=DIRECTION('',(-1.,0.,0.));
#1670=AXIS2_PLACEMENT_3D('',#1640,#1650,#1660);
#1680=CIRCLE('',#1670,502.5);
#1690=CARTESIAN_POINT('',(-502.5,-6.15385016571545E-14,1564.74853409732)
);
#1700=VERTEX_POINT('',#1690);
#1710=CARTESIAN_POINT('',(502.5,0.,1564.74853409732));
#1720=VERTEX_POINT('',#1710);
#1730=EDGE_CURVE('',#1700,#1720,#1680,.T.);
#1740=ORIENTED_EDGE('',*,*,#1730,.T.);
#1750=EDGE_CURVE('',#1720,#1700,#1680,.T.);
#1760=ORIENTED_EDGE('',*,*,#1750,.T.);
#1770=EDGE_LOOP('',(#1760,#1740));
#1780=FACE_OUTER_BOUND('',#1770,.T.);
#1790=ADVANCED_FACE('',(#1630,#1780),#1480,.F.);
#1800=CARTESIAN_POINT('',(0.,0.,1553.24853409732));
#1810=DIRECTION('',(0.,0.,-1.));
#1820=DIRECTION('',(1.,0.,0.));
#1830=AXIS2_PLACEMENT_3D('',#1800,#1810,#1820);
#1840=CYLINDRICAL_SURFACE('',#1830,473.);
#1850=CARTESIAN_POINT('',(-473.,-5.79257935996698E-14,1553.24853409732))
;
#1860=DIRECTION('',(0.,0.,-1.));
#1870=VECTOR('',#1860,1.);
#1880=LINE('',#1850,#1870);
#1890=CARTESIAN_POINT('',(-473.,-5.79257935996698E-14,1563.24853409732))
;
#1900=VERTEX_POINT('',#1890);
#1910=CARTESIAN_POINT('',(-473.,-5.79257935996698E-14,1543.24853409732))
;
#1920=VERTEX_POINT('',#1910);
#1930=EDGE_CURVE('',#1900,#1920,#1880,.T.);
#1940=ORIENTED_EDGE('',*,*,#1930,.T.);
#1950=CARTESIAN_POINT('',(0.,0.,1563.24853409732));
#1960=DIRECTION('',(0.,0.,-1.));
#1970=DIRECTION('',(1.,0.,0.));
#1980=AXIS2_PLACEMENT_3D('',#1950,#1960,#1970);
#1990=CIRCLE('',#1980,473.);
#2000=CARTESIAN_POINT('',(473.,0.,1563.24853409732));
#2010=VERTEX_POINT('',#2000);
#2020=EDGE_CURVE('',#1900,#2010,#1990,.T.);
#2030=ORIENTED_EDGE('',*,*,#2020,.F.);
#2040=CARTESIAN_POINT('',(473.,0.,1553.24853409732));
#2050=DIRECTION('',(0.,0.,-1.));
#2060=VECTOR('',#2050,1.);
#2070=LINE('',#2040,#2060);
#2080=CARTESIAN_POINT('',(473.,0.,1543.24853409732));
#2090=VERTEX_POINT('',#2080);
#2100=EDGE_CURVE('',#2010,#2090,#2070,.T.);
#2110=ORIENTED_EDGE('',*,*,#2100,.F.);
#2120=CARTESIAN_POINT('',(0.,0.,1543.24853409732));
#2130=DIRECTION('',(0.,0.,-1.));
#2140=DIRECTION('',(1.,0.,0.));
#2150=AXIS2_PLACEMENT_3D('',#2120,#2130,#2140);
#2160=CIRCLE('',#2150,473.);
#2170=EDGE_CURVE('',#1920,#2090,#2160,.T.);
#2180=ORIENTED_EDGE('',*,*,#2170,.T.);
#2190=EDGE_LOOP('',(#2180,#2110,#2030,#1940));
#2200=FACE_OUTER_BOUND('',#2190,.T.);
#2210=ADVANCED_FACE('',(#2200),#1840,.F.);
#2220=CARTESIAN_POINT('',(0.,0.,1541.74853409732));
#2230=DIRECTION('',(0.,0.,1.));
#2240=DIRECTION('',(-1.,0.,0.));
#2250=AXIS2_PLACEMENT_3D('',#2220,#2230,#2240);
#2260=CONICAL_SURFACE('',#2250,498.272059531468,0.34906585039883);
#2270=CARTESIAN_POINT('',(-498.272059531468,0.,1541.74853409732));
#2280=DIRECTION('',(-0.342020143325635,0.,0.939692620785921));
#2290=VECTOR('',#2280,1456.85004013657);
#2300=LINE('',#2270,#2290);
#2310=EDGE_CURVE('',#270,#580,#2300,.T.);
#2320=ORIENTED_EDGE('',*,*,#2310,.F.);
#2330=ORIENTED_EDGE('',*,*,#590,.T.);
#2340=CARTESIAN_POINT('',(498.272059531468,-6.10207282809771E-14,
1541.74853409732));
#2350=DIRECTION('',(0.342020143325635,-4.18853873767658E-17,
0.939692620785921));
#2360=VECTOR('',#2350,1456.85004013657);
#2370=LINE('',#2340,#2360);
#2380=EDGE_CURVE('',#290,#470,#2370,.T.);
#2390=ORIENTED_EDGE('',*,*,#2380,.T.);
#2400=ORIENTED_EDGE('',*,*,#320,.F.);
#2410=EDGE_LOOP('',(#2400,#2390,#2330,#2320));
#2420=FACE_OUTER_BOUND('',#2410,.T.);
#2430=ADVANCED_FACE('',(#2420),#2260,.T.);
#2440=CARTESIAN_POINT('',(0.,0.,1563.24853409732));
#2450=DIRECTION('',(0.,0.,-1.));
#2460=DIRECTION('',(1.,0.,0.));
#2470=AXIS2_PLACEMENT_3D('',#2440,#2450,#2460);
#2480=CONICAL_SURFACE('',#2470,504.,0.785398163397449);
#2490=CARTESIAN_POINT('',(504.,0.,1563.24853409732));
#2500=DIRECTION('',(0.707106781186548,0.,-0.707106781186547));
#2510=VECTOR('',#2500,712.76363543604);
#2520=LINE('',#2490,#2510);
#2530=EDGE_CURVE('',#1720,#1310,#2520,.T.);
#2540=ORIENTED_EDGE('',*,*,#2530,.T.);
#2550=ORIENTED_EDGE('',*,*,#1750,.F.);
#2560=CARTESIAN_POINT('',(-504.,-6.17221986770266E-14,1563.24853409732))
;
#2570=DIRECTION('',(-0.707106781186548,-8.65956056235494E-17,
-0.707106781186547));
#2580=VECTOR('',#2570,712.76363543604);
#2590=LINE('',#2560,#2580);
#2600=EDGE_CURVE('',#1700,#1210,#2590,.T.);
#2610=ORIENTED_EDGE('',*,*,#2600,.F.);
#2620=ORIENTED_EDGE('',*,*,#1390,.T.);
#2630=EDGE_LOOP('',(#2620,#2610,#2550,#2540));
#2640=FACE_OUTER_BOUND('',#2630,.T.);
#2650=ADVANCED_FACE('',(#2640),#2480,.T.);
#2660=CARTESIAN_POINT('',(0.,0.,1564.74853409732));
#2670=DIRECTION('',(0.,0.,1.));
#2680=DIRECTION('',(-1.,0.,0.));
#2690=AXIS2_PLACEMENT_3D('',#2660,#2670,#2680);
#2700=CONICAL_SURFACE('',#2690,474.5,0.785398163397448);
#2710=CARTESIAN_POINT('',(474.5,-5.81094906195419E-14,1564.74853409732))
;
#2720=DIRECTION('',(0.707106781186548,-8.65956056235493E-17,
0.707106781186548));
#2730=VECTOR('',#2720,671.044335346034);
#2740=LINE('',#2710,#2730);
#2750=EDGE_CURVE('',#2010,#1550,#2740,.T.);
#2760=ORIENTED_EDGE('',*,*,#2750,.T.);
#2770=ORIENTED_EDGE('',*,*,#2020,.T.);
#2780=CARTESIAN_POINT('',(-474.5,0.,1564.74853409732));
#2790=DIRECTION('',(-0.707106781186548,0.,0.707106781186548));
#2800=VECTOR('',#2790,671.044335346034);
#2810=LINE('',#2780,#2800);
#2820=EDGE_CURVE('',#1900,#1570,#2810,.T.);
#2830=ORIENTED_EDGE('',*,*,#2820,.F.);
#2840=ORIENTED_EDGE('',*,*,#1600,.F.);
#2850=EDGE_LOOP('',(#2840,#2830,#2770,#2760));
#2860=FACE_OUTER_BOUND('',#2850,.T.);
#2870=ADVANCED_FACE('',(#2860),#2700,.F.);
#2880=CARTESIAN_POINT('',(0.,0.,1541.74853409732));
#2890=DIRECTION('',(0.,0.,-1.));
#2900=DIRECTION('',(1.,0.,0.));
#2910=AXIS2_PLACEMENT_3D('',#2880,#2890,#2900);
#2920=CONICAL_SURFACE('',#2910,474.5,0.785398163397448);
#2930=CARTESIAN_POINT('',(-474.5,-5.81094906195419E-14,1541.74853409732)
);
#2940=DIRECTION('',(-0.707106781186548,-8.65956056235493E-17,
-0.707106781186548));
#2950=VECTOR('',#2940,671.044335346034);
#2960=LINE('',#2930,#2950);
#2970=EDGE_CURVE('',#1920,#140,#2960,.T.);
#2980=ORIENTED_EDGE('',*,*,#2970,.T.);
#2990=ORIENTED_EDGE('',*,*,#2170,.F.);
#3000=CARTESIAN_POINT('',(474.5,0.,1541.74853409732));
#3010=DIRECTION('',(0.707106781186548,0.,-0.707106781186548));
#3020=VECTOR('',#3010,671.044335346034);
#3030=LINE('',#3000,#3020);
#3040=EDGE_CURVE('',#2090,#120,#3030,.T.);
#3050=ORIENTED_EDGE('',*,*,#3040,.F.);
#3060=ORIENTED_EDGE('',*,*,#170,.T.);
#3070=EDGE_LOOP('',(#3060,#3050,#2990,#2980));
#3080=FACE_OUTER_BOUND('',#3070,.T.);
#3090=ADVANCED_FACE('',(#3080),#2920,.F.);
#3100=CARTESIAN_POINT('',(0.,0.,1553.24853409732));
#3110=DIRECTION('',(0.,0.,-1.));
#3120=DIRECTION('',(1.,0.,0.));
#3130=AXIS2_PLACEMENT_3D('',#3100,#3110,#3120);
#3140=CYLINDRICAL_SURFACE('',#3130,473.);
#3150=EDGE_CURVE('',#2010,#1900,#1990,.T.);
#3160=ORIENTED_EDGE('',*,*,#3150,.F.);
#3170=ORIENTED_EDGE('',*,*,#1930,.F.);
#3180=EDGE_CURVE('',#2090,#1920,#2160,.T.);
#3190=ORIENTED_EDGE('',*,*,#3180,.T.);
#3200=ORIENTED_EDGE('',*,*,#2100,.T.);
#3210=EDGE_LOOP('',(#3200,#3190,#3170,#3160));
#3220=FACE_OUTER_BOUND('',#3210,.T.);
#3230=ADVANCED_FACE('',(#3220),#3140,.F.);
#3240=CARTESIAN_POINT('',(0.,0.,1563.24853409732));
#3250=DIRECTION('',(0.,0.,-1.));
#3260=DIRECTION('',(1.,0.,0.));
#3270=AXIS2_PLACEMENT_3D('',#3240,#3250,#3260);
#3280=CONICAL_SURFACE('',#3270,504.,0.785398163397449);
#3290=EDGE_CURVE('',#1210,#1310,#1380,.T.);
#3300=ORIENTED_EDGE('',*,*,#3290,.T.);
#3310=ORIENTED_EDGE('',*,*,#2600,.T.);
#3320=ORIENTED_EDGE('',*,*,#1730,.F.);
#3330=ORIENTED_EDGE('',*,*,#2530,.F.);
#3340=EDGE_LOOP('',(#3330,#3320,#3310,#3300));
#3350=FACE_OUTER_BOUND('',#3340,.T.);
#3360=ADVANCED_FACE('',(#3350),#3280,.T.);
#3370=CARTESIAN_POINT('',(0.,0.,1548.24957178837));
#3380=DIRECTION('',(0.,0.,1.));
#3390=DIRECTION('',(-1.,0.,0.));
#3400=AXIS2_PLACEMENT_3D('',#3370,#3380,#3390);
#3410=CONICAL_SURFACE('',#3400,504.,0.959931088596875);
#3420=EDGE_CURVE('',#660,#490,#730,.T.);
#3430=ORIENTED_EDGE('',*,*,#3420,.F.);
#3440=ORIENTED_EDGE('',*,*,#900,.F.);
#3450=ORIENTED_EDGE('',*,*,#1240,.T.);
#3460=ORIENTED_EDGE('',*,*,#990,.T.);
#3470=EDGE_LOOP('',(#3460,#3450,#3440,#3430));
#3480=FACE_OUTER_BOUND('',#3470,.T.);
#3490=ADVANCED_FACE('',(#3480),#3410,.T.);
#3500=CARTESIAN_POINT('',(0.,0.,1541.74853409732));
#3510=DIRECTION('',(0.,0.,-1.));
#3520=DIRECTION('',(1.,0.,0.));
#3530=AXIS2_PLACEMENT_3D('',#3500,#3510,#3520);
#3540=CONICAL_SURFACE('',#3530,474.5,0.785398163397448);
#3550=ORIENTED_EDGE('',*,*,#3180,.F.);
#3560=ORIENTED_EDGE('',*,*,#2970,.F.);
#3570=ORIENTED_EDGE('',*,*,#150,.T.);
#3580=ORIENTED_EDGE('',*,*,#3040,.T.);
#3590=EDGE_LOOP('',(#3580,#3570,#3560,#3550));
#3600=FACE_OUTER_BOUND('',#3590,.T.);
#3610=ADVANCED_FACE('',(#3600),#3540,.F.);
#3620=CARTESIAN_POINT('',(0.,0.,1564.74853409732));
#3630=DIRECTION('',(0.,0.,1.));
#3640=DIRECTION('',(-1.,0.,0.));
#3650=AXIS2_PLACEMENT_3D('',#3620,#3630,#3640);
#3660=CONICAL_SURFACE('',#3650,474.5,0.785398163397448);
#3670=ORIENTED_EDGE('',*,*,#3150,.T.);
#3680=ORIENTED_EDGE('',*,*,#2750,.F.);
#3690=ORIENTED_EDGE('',*,*,#1580,.F.);
#3700=ORIENTED_EDGE('',*,*,#2820,.T.);
#3710=EDGE_LOOP('',(#3700,#3690,#3680,#3670));
#3720=FACE_OUTER_BOUND('',#3710,.T.);
#3730=ADVANCED_FACE('',(#3720),#3660,.F.);
#3740=CARTESIAN_POINT('',(0.,0.,1543.24853409732));
#3750=DIRECTION('',(0.,0.,1.));
#3760=DIRECTION('',(-1.,0.,0.));
#3770=AXIS2_PLACEMENT_3D('',#3740,#3750,#3760);
#3780=CYLINDRICAL_SURFACE('',#3770,499.);
#3790=EDGE_CURVE('',#580,#470,#560,.T.);
#3800=ORIENTED_EDGE('',*,*,#3790,.F.);
#3810=ORIENTED_EDGE('',*,*,#500,.F.);
#3820=ORIENTED_EDGE('',*,*,#3420,.T.);
#3830=ORIENTED_EDGE('',*,*,#670,.T.);
#3840=EDGE_LOOP('',(#3830,#3820,#3810,#3800));
#3850=FACE_OUTER_BOUND('',#3840,.T.);
#3860=ADVANCED_FACE('',(#3850),#3780,.T.);
#3870=CARTESIAN_POINT('',(0.,0.,1556.49905294285));
#3880=DIRECTION('',(0.,0.,1.));
#3890=DIRECTION('',(-1.,0.,0.));
#3900=AXIS2_PLACEMENT_3D('',#3870,#3880,#3890);
#3910=CYLINDRICAL_SURFACE('',#3900,504.);
#3920=ORIENTED_EDGE('',*,*,#1220,.F.);
#3930=ORIENTED_EDGE('',*,*,#3290,.F.);
#3940=ORIENTED_EDGE('',*,*,#1320,.T.);
#3950=ORIENTED_EDGE('',*,*,#1060,.F.);
#3960=EDGE_LOOP('',(#3950,#3940,#3930,#3920));
#3970=FACE_OUTER_BOUND('',#3960,.T.);
#3980=ADVANCED_FACE('',(#3970),#3910,.T.);
#3990=CARTESIAN_POINT('',(0.,0.,1541.74853409732));
#4000=DIRECTION('',(0.,0.,1.));
#4010=DIRECTION('',(-1.,0.,0.));
#4020=AXIS2_PLACEMENT_3D('',#3990,#4000,#4010);
#4030=CONICAL_SURFACE('',#4020,498.272059531468,0.34906585039883);
#4040=ORIENTED_EDGE('',*,*,#300,.F.);
#4050=ORIENTED_EDGE('',*,*,#2380,.F.);
#4060=ORIENTED_EDGE('',*,*,#3790,.T.);
#4070=ORIENTED_EDGE('',*,*,#2310,.T.);
#4080=EDGE_LOOP('',(#4070,#4060,#4050,#4040));
#4090=FACE_OUTER_BOUND('',#4080,.T.);
#4100=ADVANCED_FACE('',(#4090),#4030,.T.);
#4110=CLOSED_SHELL('',(#360,#780,#1100,#1430,#1790,#2210,#2430,#2650,
#2870,#3090,#3230,#3360,#3490,#3610,#3730,#3860,#3980,#4100));
#4120=MANIFOLD_SOLID_BREP('',#4110);
#4130=CARTESIAN_POINT('',(0.,0.,0.));
#4140=DIRECTION('',(0.,0.,1.));
#4150=DIRECTION('',(1.,0.,0.));
#4160=AXIS2_PLACEMENT_3D('',#4130,#4140,#4150);
#4170=APPLICATION_CONTEXT(' ');
#4180=APPLICATION_PROTOCOL_DEFINITION(' ','automotive_design',1998,#4170
);
#4190=PRODUCT_CONTEXT('',#4170,'mechanical');
#4200=PRODUCT_DEFINITION_CONTEXT('part definition',#4170,'design');
#4210=PRODUCT('00014985 BRIDE DOUBLE ENVELOPPE CUISINE A COLLE',
'00014985 BRIDE DOUBLE ENVELOPPE CUISINE A COLLE','',(#4190));
#4220=PRODUCT_RELATED_PRODUCT_CATEGORY('part',' ',(#4210));
#4230=PRODUCT_DEFINITION_FORMATION_WITH_SPECIFIED_SOURCE('','',#4210,
.BOUGHT.);
#4240=PRODUCT_DEFINITION('',' ',#4230,#4200);
#4250=PRODUCT_DEFINITION_SHAPE('','',#4240);
#4260=DIMENSIONAL_EXPONENTS(1.,0.,0.,0.,0.,0.,0.);
#4270=DIMENSIONAL_EXPONENTS(0.,0.,0.,0.,0.,0.,0.);
#4280=DIMENSIONAL_EXPONENTS(0.,0.,0.,0.,0.,0.,0.);
#4290=(LENGTH_UNIT() NAMED_UNIT(*) SI_UNIT(.MILLI.,.METRE.));
#4300=(NAMED_UNIT(*) PLANE_ANGLE_UNIT() SI_UNIT($,.RADIAN.));
#4310=(NAMED_UNIT(*) SI_UNIT($,.STERADIAN.) SOLID_ANGLE_UNIT());
#4320=(GEOMETRIC_REPRESENTATION_CONTEXT(3) 
GLOBAL_UNCERTAINTY_ASSIGNED_CONTEXT((#4330)) 
GLOBAL_UNIT_ASSIGNED_CONTEXT((#4290,#4300,#4310)) REPRESENTATION_CONTEXT
('',''));
#4330=UNCERTAINTY_MEASURE_WITH_UNIT(LENGTH_MEASURE(1.E-6),#4290,
'distance_accuracy_value','maximum gap value');
#4340=ADVANCED_BREP_SHAPE_REPRESENTATION('',(#4160,#4120),#4320);
#4350=SHAPE_DEFINITION_REPRESENTATION(#4250,#4340);
#4360=COLOUR_RGB('',0.600000023841858,0.600000023841858,
0.600000023841858);
#4370=FILL_AREA_STYLE_COLOUR('',#4360);
#4380=FILL_AREA_STYLE('',(#4370));
#4390=SURFACE_STYLE_FILL_AREA(#4380);
#4400=SURFACE_SIDE_STYLE('',(#4390));
#4410=SURFACE_STYLE_USAGE(.BOTH.,#4400);
#4420=PRESENTATION_STYLE_ASSIGNMENT((#4410));
#4430=STYLED_ITEM('',(#4420),#4120);
#4440=DRAUGHTING_MODEL('',(#4430),#4320);
#4450=CARTESIAN_POINT('',(401.433613476598,-695.303414394941,
-352.560460601875));
#4460=DIRECTION('',(0.,0.,1.));
#4470=DIRECTION('',(1.,0.,0.));
#4480=AXIS2_PLACEMENT_3D('',#4450,#4460,#4470);
#4490=ITEM_DEFINED_TRANSFORMATION(
'00014985 BRIDE DOUBLE ENVELOPPE CUISINE A COLLE','',#4160,#4480);
#4500=APPLICATION_CONTEXT(' ');
#4510=APPLICATION_PROTOCOL_DEFINITION(' ','automotive_design',1998,#4500
);
#4520=PRODUCT_CONTEXT('',#4500,'mechanical');
#4530=PRODUCT_DEFINITION_CONTEXT('part definition',#4500,'design');
#4540=PRODUCT('00014985 BRIDE DOUBLE ENVELOPPE CUISINE A COLLE',
'00014985 BRIDE DOUBLE ENVELOPPE CUISINE A COLLE','',(#4520));
#4550=PRODUCT_RELATED_PRODUCT_CATEGORY('part',' ',(#4540));
#4560=PRODUCT_DEFINITION_FORMATION_WITH_SPECIFIED_SOURCE('','',#4540,
.BOUGHT.);
#4570=PRODUCT_DEFINITION('',' ',#4560,#4530);
#4580=PRODUCT_DEFINITION_SHAPE('','',#4570);
#4590=DIMENSIONAL_EXPONENTS(1.,0.,0.,0.,0.,0.,0.);
#4600=DIMENSIONAL_EXPONENTS(0.,0.,0.,0.,0.,0.,0.);
#4610=DIMENSIONAL_EXPONENTS(0.,0.,0.,0.,0.,0.,0.);
#4620=(LENGTH_UNIT() NAMED_UNIT(*) SI_UNIT(.MILLI.,.METRE.));
#4630=(NAMED_UNIT(*) PLANE_ANGLE_UNIT() SI_UNIT($,.RADIAN.));
#4640=(NAMED_UNIT(*) SI_UNIT($,.STERADIAN.) SOLID_ANGLE_UNIT());
#4650=(GEOMETRIC_REPRESENTATION_CONTEXT(3) 
GLOBAL_UNCERTAINTY_ASSIGNED_CONTEXT((#4660)) 
GLOBAL_UNIT_ASSIGNED_CONTEXT((#4620,#4630,#4640)) REPRESENTATION_CONTEXT
('',''));
#4660=UNCERTAINTY_MEASURE_WITH_UNIT(LENGTH_MEASURE(1.E-6),#4620,
'distance_accuracy_value','maximum gap value');
#4670=SHAPE_REPRESENTATION('',(#4160,#4480),#4650);
#4680=SHAPE_DEFINITION_REPRESENTATION(#4580,#4670);
#4690=(REPRESENTATION_RELATIONSHIP('','',#4340,#4670) 
REPRESENTATION_RELATIONSHIP_WITH_TRANSFORMATION(#4490) 
SHAPE_REPRESENTATION_RELATIONSHIP());
#4700=NEXT_ASSEMBLY_USAGE_OCCURRENCE('1','',
'00014985 BRIDE DOUBLE ENVELOPPE CUISINE A COLLE',#4570,#4240,'');
#4710=PRODUCT_DEFINITION_SHAPE('','',#4700);
#4720=CONTEXT_DEPENDENT_SHAPE_REPRESENTATION(#4690,#4710);
ENDSEC;
END-ISO-10303-21;
