ISO-10303-21;
HEADER;
FILE_DESCRIPTION(('STEP AP214'),'1');
FILE_NAME('case_simple.stp','2023-10-30T10:36:57',(' '),(' '),'Spatial InterOp 3D',' ',' ');
FILE_SCHEMA(('AUTOMOTIVE_DESIGN { 1 0 10303 214 1 1 1 1 }'));
ENDSEC;
DATA;
#1=PRODUCT_DEFINITION_CONTEXT('',#21,'design');
#2=APPLICATION_PROTOCOL_DEFINITION('INTERNATIONAL STANDARD','automotive_design',1994,#21);
#3=PRODUCT_CATEGORY_RELATIONSHIP('NONE','NONE',#22,#23);
#4=SHAPE_DEFINITION_REPRESENTATION(#24,#25);
#5=PRODUCT_DEFINITION_CONTEXT('',#26,'design');
#6=APPLICATION_PROTOCOL_DEFINITION('INTERNATIONAL STANDARD','automotive_design',1994,#26);
#7=PRODUCT_CATEGORY_RELATIONSHIP('NONE','NONE',#27,#28);
#8=CONTEXT_DEPENDENT_SHAPE_REPRESENTATION(#29,#30);
#9=SHAPE_DEFINITION_REPRESENTATION(#31,#32);
#10=SHAPE_REPRESENTATION_RELATIONSHIP('NONE','NONE',#32,#33);
#11=PRODUCT_DEFINITION_CONTEXT('',#34,'design');
#12=APPLICATION_PROTOCOL_DEFINITION('INTERNATIONAL STANDARD','automotive_design',1994,#34);
#13=PRODUCT_CATEGORY_RELATIONSHIP('NONE','NONE',#35,#36);
#14=SHAPE_DEFINITION_REPRESENTATION(#37,#38);
#15=CONTEXT_DEPENDENT_SHAPE_REPRESENTATION(#39,#40);
#16=MECHANICAL_DESIGN_GEOMETRIC_PRESENTATION_REPRESENTATION(' ',(#41),#17);
#17= (GEOMETRIC_REPRESENTATION_CONTEXT(3)GLOBAL_UNCERTAINTY_ASSIGNED_CONTEXT((#44))GLOBAL_UNIT_ASSIGNED_CONTEXT((#46,#47,#48))REPRESENTATION_CONTEXT('NONE','WORKSPACE'));
#21=APPLICATION_CONTEXT(' ');
#22=PRODUCT_CATEGORY('part','NONE');
#23=PRODUCT_RELATED_PRODUCT_CATEGORY('detail',' ',(#50));
#24=PRODUCT_DEFINITION_SHAPE('NONE','NONE',#51);
#25=SHAPE_REPRESENTATION('case_jlcpcb',(#52,#53),#54);
#26=APPLICATION_CONTEXT(' ');
#27=PRODUCT_CATEGORY('part','NONE');
#28=PRODUCT_RELATED_PRODUCT_CATEGORY('detail',' ',(#55));
#29=(REPRESENTATION_RELATIONSHIP('','',#32,#25)REPRESENTATION_RELATIONSHIP_WITH_TRANSFORMATION(#58)SHAPE_REPRESENTATION_RELATIONSHIP());
#30=PRODUCT_DEFINITION_SHAPE('NAUO-PROD-DEF','NAUO-PROD-DEF',#60);
#31=PRODUCT_DEFINITION_SHAPE('NONE','NONE',#61);
#32=SHAPE_REPRESENTATION('case_jlcpcb2',(#52),#54);
#33=ADVANCED_BREP_SHAPE_REPRESENTATION('Box',(#62),#17);
#34=APPLICATION_CONTEXT(' ');
#35=PRODUCT_CATEGORY('part','NONE');
#36=PRODUCT_RELATED_PRODUCT_CATEGORY('detail',' ',(#63));
#37=PRODUCT_DEFINITION_SHAPE('NONE','NONE',#64);
#38=SHAPE_REPRESENTATION('case_simple',(#65,#66),#67);
#39=(REPRESENTATION_RELATIONSHIP('','',#25,#38)REPRESENTATION_RELATIONSHIP_WITH_TRANSFORMATION(#70)SHAPE_REPRESENTATION_RELATIONSHIP());
#40=PRODUCT_DEFINITION_SHAPE('NAUO-PROD-DEF','NAUO-PROD-DEF',#72);
#41=STYLED_ITEM('',(#73),#62);
#44=UNCERTAINTY_MEASURE_WITH_UNIT(LENGTH_MEASURE(1.0E-08),#46,'','');
#46= (CONVERSION_BASED_UNIT('METRE',#76)LENGTH_UNIT()NAMED_UNIT(#79));
#47= (NAMED_UNIT(#81)PLANE_ANGLE_UNIT()SI_UNIT($,.RADIAN.));
#48= (NAMED_UNIT(#81)SOLID_ANGLE_UNIT()SI_UNIT($,.STERADIAN.));
#50=PRODUCT('case_jlcpcb','case_jlcpcb','PART--DESC',(#87));
#51=PRODUCT_DEFINITION('case_jlcpcb','case_jlcpcb',#88,#1);
#52=AXIS2_PLACEMENT_3D('',#89,#90,#91);
#53=AXIS2_PLACEMENT_3D('',#92,#93,#94);
#54= (GEOMETRIC_REPRESENTATION_CONTEXT(3)GLOBAL_UNCERTAINTY_ASSIGNED_CONTEXT((#97))GLOBAL_UNIT_ASSIGNED_CONTEXT((#99,#100,#101))REPRESENTATION_CONTEXT('NONE','WORKSPACE'));
#55=PRODUCT('case_jlcpcb2','case_jlcpcb2','PART-case_jlcpcb2-DESC',(#103));
#58=ITEM_DEFINED_TRANSFORMATION('','',#52,#53);
#60=NEXT_ASSEMBLY_USAGE_OCCURRENCE('case_jlcpcb2','case_jlcpcb2','case_jlcpcb2',#51,#61,$);
#61=PRODUCT_DEFINITION('case_jlcpcb2','case_jlcpcb2',#104,#5);
#62=MANIFOLD_SOLID_BREP('Box',#105);
#63=PRODUCT('case_simple','case_simple','PART--DESC',(#106));
#64=PRODUCT_DEFINITION('case_simple','case_simple',#107,#11);
#65=AXIS2_PLACEMENT_3D('',#108,#109,#110);
#66=AXIS2_PLACEMENT_3D('',#111,#112,#113);
#67= (GEOMETRIC_REPRESENTATION_CONTEXT(3)GLOBAL_UNCERTAINTY_ASSIGNED_CONTEXT((#116))GLOBAL_UNIT_ASSIGNED_CONTEXT((#118,#119,#120))REPRESENTATION_CONTEXT('NONE','WORKSPACE'));
#70=ITEM_DEFINED_TRANSFORMATION('','',#52,#66);
#72=NEXT_ASSEMBLY_USAGE_OCCURRENCE('case_jlcpcb','case_jlcpcb','case_jlcpcb',#64,#51,$);
#73=PRESENTATION_STYLE_ASSIGNMENT((#122));
#76=LENGTH_MEASURE_WITH_UNIT(LENGTH_MEASURE(1.0),#123);
#79=DIMENSIONAL_EXPONENTS(1.0,0.0,0.0,0.0,0.0,0.0,0.0);
#81=DIMENSIONAL_EXPONENTS(0.0,0.0,0.0,0.0,0.0,0.0,0.0);
#87=PRODUCT_CONTEXT('',#21,'mechanical');
#88=PRODUCT_DEFINITION_FORMATION_WITH_SPECIFIED_SOURCE(' ','NONE',#50,.NOT_KNOWN.);
#89=CARTESIAN_POINT('',(0.0,0.0,0.0));
#90=DIRECTION('',(0.0,0.0,1.0));
#91=DIRECTION('',(1.0,0.0,0.0));
#92=CARTESIAN_POINT('',(0.0,0.0,0.0));
#93=DIRECTION('',(0.0,0.0,1.0));
#94=DIRECTION('',(1.0,0.0,0.0));
#97=UNCERTAINTY_MEASURE_WITH_UNIT(LENGTH_MEASURE(1.0E-08),#99,'','');
#99= (CONVERSION_BASED_UNIT('METRE',#126)LENGTH_UNIT()NAMED_UNIT(#129));
#100= (NAMED_UNIT(#131)PLANE_ANGLE_UNIT()SI_UNIT($,.RADIAN.));
#101= (NAMED_UNIT(#131)SOLID_ANGLE_UNIT()SI_UNIT($,.STERADIAN.));
#103=PRODUCT_CONTEXT('',#26,'mechanical');
#104=PRODUCT_DEFINITION_FORMATION_WITH_SPECIFIED_SOURCE(' ','NONE',#55,.NOT_KNOWN.);
#105=CLOSED_SHELL('',(#137,#138,#139,#140,#141,#142,#143,#144,#145,#146));
#106=PRODUCT_CONTEXT('',#34,'mechanical');
#107=PRODUCT_DEFINITION_FORMATION_WITH_SPECIFIED_SOURCE(' ','NONE',#63,.NOT_KNOWN.);
#108=CARTESIAN_POINT('',(0.0,0.0,0.0));
#109=DIRECTION('',(0.0,0.0,1.0));
#110=DIRECTION('',(1.0,0.0,0.0));
#111=CARTESIAN_POINT('',(0.0,0.0,0.0));
#112=DIRECTION('',(0.0,0.0,1.0));
#113=DIRECTION('',(1.0,0.0,0.0));
#116=UNCERTAINTY_MEASURE_WITH_UNIT(LENGTH_MEASURE(1.0E-08),#118,'','');
#118= (CONVERSION_BASED_UNIT('METRE',#149)LENGTH_UNIT()NAMED_UNIT(#152));
#119= (NAMED_UNIT(#154)PLANE_ANGLE_UNIT()SI_UNIT($,.RADIAN.));
#120= (NAMED_UNIT(#154)SOLID_ANGLE_UNIT()SI_UNIT($,.STERADIAN.));
#122=SURFACE_STYLE_USAGE(.BOTH.,#160);
#123= (NAMED_UNIT(#79)LENGTH_UNIT()SI_UNIT($,.METRE.));
#126=LENGTH_MEASURE_WITH_UNIT(LENGTH_MEASURE(1.0),#162);
#129=DIMENSIONAL_EXPONENTS(1.0,0.0,0.0,0.0,0.0,0.0,0.0);
#131=DIMENSIONAL_EXPONENTS(0.0,0.0,0.0,0.0,0.0,0.0,0.0);
#137=ADVANCED_FACE('0:43',(#163),#164,.F.);
#138=ADVANCED_FACE('0:40',(#165),#166,.F.);
#139=ADVANCED_FACE('0:37',(#167),#168,.T.);
#140=ADVANCED_FACE('0:49',(#169,#170),#171,.T.);
#141=ADVANCED_FACE('0:37',(#172),#173,.T.);
#142=ADVANCED_FACE('0:40',(#174),#175,.F.);
#143=ADVANCED_FACE('0:52',(#176,#177),#178,.T.);
#144=ADVANCED_FACE('0:55',(#179),#180,.T.);
#145=ADVANCED_FACE('0:46',(#181),#182,.T.);
#146=ADVANCED_FACE('0:43',(#183),#184,.F.);
#149=LENGTH_MEASURE_WITH_UNIT(LENGTH_MEASURE(1.0),#185);
#152=DIMENSIONAL_EXPONENTS(1.0,0.0,0.0,0.0,0.0,0.0,0.0);
#154=DIMENSIONAL_EXPONENTS(0.0,0.0,0.0,0.0,0.0,0.0,0.0);
#160=SURFACE_SIDE_STYLE('',(#186));
#162= (NAMED_UNIT(#129)LENGTH_UNIT()SI_UNIT($,.METRE.));
#163=FACE_OUTER_BOUND('',#188,.T.);
#164=CYLINDRICAL_SURFACE('',#189,0.01265);
#165=FACE_OUTER_BOUND('',#190,.T.);
#166=CYLINDRICAL_SURFACE('',#191,0.01335);
#167=FACE_OUTER_BOUND('',#192,.T.);
#168=CYLINDRICAL_SURFACE('',#193,0.015);
#169=FACE_OUTER_BOUND('',#194,.T.);
#170=FACE_BOUND('',#195,.T.);
#171=PLANE('',#196);
#172=FACE_OUTER_BOUND('',#197,.T.);
#173=CYLINDRICAL_SURFACE('',#198,0.015);
#174=FACE_OUTER_BOUND('',#199,.T.);
#175=CYLINDRICAL_SURFACE('',#200,0.01335);
#176=FACE_OUTER_BOUND('',#201,.T.);
#177=FACE_BOUND('',#202,.T.);
#178=PLANE('',#203);
#179=FACE_OUTER_BOUND('',#204,.T.);
#180=PLANE('',#205);
#181=FACE_OUTER_BOUND('',#206,.T.);
#182=PLANE('',#207);
#183=FACE_OUTER_BOUND('',#208,.T.);
#184=CYLINDRICAL_SURFACE('',#209,0.01265);
#185= (NAMED_UNIT(#152)LENGTH_UNIT()SI_UNIT($,.METRE.));
#186=SURFACE_STYLE_FILL_AREA(#211);
#188=EDGE_LOOP('',(#212,#213,#214,#215));
#189=AXIS2_PLACEMENT_3D('',#216,#217,#218);
#190=EDGE_LOOP('',(#219,#220,#221,#222));
#191=AXIS2_PLACEMENT_3D('',#223,#224,#225);
#192=EDGE_LOOP('',(#226,#227,#228,#229));
#193=AXIS2_PLACEMENT_3D('',#230,#231,#232);
#194=EDGE_LOOP('',(#233,#234));
#195=EDGE_LOOP('',(#235,#236));
#196=AXIS2_PLACEMENT_3D('',#237,#238,#239);
#197=EDGE_LOOP('',(#240,#241,#242,#243));
#198=AXIS2_PLACEMENT_3D('',#244,#245,#246);
#199=EDGE_LOOP('',(#247,#248,#249,#250));
#200=AXIS2_PLACEMENT_3D('',#251,#252,#253);
#201=EDGE_LOOP('',(#254,#255));
#202=EDGE_LOOP('',(#256,#257));
#203=AXIS2_PLACEMENT_3D('',#258,#259,#260);
#204=EDGE_LOOP('',(#261,#262));
#205=AXIS2_PLACEMENT_3D('',#263,#264,#265);
#206=EDGE_LOOP('',(#266,#267));
#207=AXIS2_PLACEMENT_3D('',#268,#269,#270);
#208=EDGE_LOOP('',(#271,#272,#273,#274));
#209=AXIS2_PLACEMENT_3D('',#275,#276,#277);
#211=FILL_AREA_STYLE('',(#278));
#212=ORIENTED_EDGE('',*,*,#279,.F.);
#213=ORIENTED_EDGE('',*,*,#280,.T.);
#214=ORIENTED_EDGE('',*,*,#281,.F.);
#215=ORIENTED_EDGE('',*,*,#282,.F.);
#216=CARTESIAN_POINT('',(0.013,0.0,0.0));
#217=DIRECTION('',(1.0,0.0,0.0));
#218=DIRECTION('',(-0.0,1.0,0.0));
#219=ORIENTED_EDGE('',*,*,#283,.F.);
#220=ORIENTED_EDGE('',*,*,#284,.F.);
#221=ORIENTED_EDGE('',*,*,#285,.F.);
#222=ORIENTED_EDGE('',*,*,#286,.T.);
#223=CARTESIAN_POINT('',(0.029025,0.0,0.0));
#224=DIRECTION('',(1.0,-0.0,0.0));
#225=DIRECTION('',(0.0,1.0,0.0));
#226=ORIENTED_EDGE('',*,*,#287,.F.);
#227=ORIENTED_EDGE('',*,*,#288,.F.);
#228=ORIENTED_EDGE('',*,*,#289,.F.);
#229=ORIENTED_EDGE('',*,*,#290,.F.);
#230=CARTESIAN_POINT('',(0.015,0.0,0.0));
#231=DIRECTION('',(1.0,-0.0,0.0));
#232=DIRECTION('',(0.0,1.0,0.0));
#233=ORIENTED_EDGE('',*,*,#284,.T.);
#234=ORIENTED_EDGE('',*,*,#291,.T.);
#235=ORIENTED_EDGE('',*,*,#292,.F.);
#236=ORIENTED_EDGE('',*,*,#280,.F.);
#237=CARTESIAN_POINT('',(0.02805,0.013,0.0));
#238=DIRECTION('',(1.0,0.0,0.0));
#239=DIRECTION('',(0.0,1.0,0.0));
#240=ORIENTED_EDGE('',*,*,#287,.T.);
#241=ORIENTED_EDGE('',*,*,#293,.F.);
#242=ORIENTED_EDGE('',*,*,#289,.T.);
#243=ORIENTED_EDGE('',*,*,#294,.F.);
#244=CARTESIAN_POINT('',(0.015,0.0,0.0));
#245=DIRECTION('',(1.0,-0.0,0.0));
#246=DIRECTION('',(0.0,1.0,0.0));
#247=ORIENTED_EDGE('',*,*,#283,.T.);
#248=ORIENTED_EDGE('',*,*,#295,.T.);
#249=ORIENTED_EDGE('',*,*,#285,.T.);
#250=ORIENTED_EDGE('',*,*,#291,.F.);
#251=CARTESIAN_POINT('',(0.029025,0.0,0.0));
#252=DIRECTION('',(1.0,-0.0,0.0));
#253=DIRECTION('',(0.0,1.0,0.0));
#254=ORIENTED_EDGE('',*,*,#288,.T.);
#255=ORIENTED_EDGE('',*,*,#294,.T.);
#256=ORIENTED_EDGE('',*,*,#286,.F.);
#257=ORIENTED_EDGE('',*,*,#295,.F.);
#258=CARTESIAN_POINT('',(0.03,0.014175,0.0));
#259=DIRECTION('',(1.0,-2.10269512239613E-15,0.0));
#260=DIRECTION('',(-2.10269512239613E-15,-1.0,0.0));
#261=ORIENTED_EDGE('',*,*,#293,.T.);
#262=ORIENTED_EDGE('',*,*,#290,.T.);
#263=CARTESIAN_POINT('',(0.0,0.0075,0.0));
#264=DIRECTION('',(-1.0,-0.0,0.0));
#265=DIRECTION('',(0.0,0.0,1.0));
#266=ORIENTED_EDGE('',*,*,#296,.T.);
#267=ORIENTED_EDGE('',*,*,#282,.T.);
#268=CARTESIAN_POINT('',(0.013,0.00505,0.0));
#269=DIRECTION('',(1.0,-1.71754799601664E-16,0.0));
#270=DIRECTION('',(-1.71754799601664E-16,-1.0,0.0));
#271=ORIENTED_EDGE('',*,*,#279,.T.);
#272=ORIENTED_EDGE('',*,*,#296,.F.);
#273=ORIENTED_EDGE('',*,*,#281,.T.);
#274=ORIENTED_EDGE('',*,*,#292,.T.);
#275=CARTESIAN_POINT('',(0.013,0.0,0.0));
#276=DIRECTION('',(1.0,0.0,0.0));
#277=DIRECTION('',(-0.0,1.0,0.0));
#278=FILL_AREA_STYLE_COLOUR('',#297);
#279=EDGE_CURVE('',#298,#299,#300,.T.);
#280=EDGE_CURVE('0:73',#298,#301,#302,.F.);
#281=EDGE_CURVE('',#303,#301,#304,.T.);
#282=EDGE_CURVE('0:70',#299,#303,#305,.F.);
#283=EDGE_CURVE('',#306,#307,#308,.T.);
#284=EDGE_CURVE('0:64',#309,#306,#310,.T.);
#285=EDGE_CURVE('',#311,#309,#312,.T.);
#286=EDGE_CURVE('0:67',#311,#307,#313,.T.);
#287=EDGE_CURVE('',#314,#315,#316,.T.);
#288=EDGE_CURVE('0:58',#317,#314,#318,.T.);
#289=EDGE_CURVE('',#319,#317,#320,.T.);
#290=EDGE_CURVE('0:61',#315,#319,#321,.T.);
#291=EDGE_CURVE('0:64',#306,#309,#322,.T.);
#292=EDGE_CURVE('0:73',#301,#298,#323,.F.);
#293=EDGE_CURVE('0:61',#319,#315,#324,.T.);
#294=EDGE_CURVE('0:58',#314,#317,#325,.T.);
#295=EDGE_CURVE('0:67',#307,#311,#326,.T.);
#296=EDGE_CURVE('0:70',#303,#299,#327,.F.);
#297=COLOUR_RGB('',0.560784339904785,0.686274528503418,0.560784339904785);
#298=VERTEX_POINT('',#328);
#299=VERTEX_POINT('',#329);
#300=LINE('',#330,#331);
#301=VERTEX_POINT('',#332);
#302=CIRCLE('',#333,0.01265);
#303=VERTEX_POINT('',#334);
#304=LINE('',#335,#336);
#305=CIRCLE('',#337,0.01265);
#306=VERTEX_POINT('',#338);
#307=VERTEX_POINT('',#339);
#308=LINE('',#340,#341);
#309=VERTEX_POINT('',#342);
#310=CIRCLE('',#343,0.01335);
#311=VERTEX_POINT('',#344);
#312=LINE('',#345,#346);
#313=CIRCLE('',#347,0.01335);
#314=VERTEX_POINT('',#348);
#315=VERTEX_POINT('',#349);
#316=LINE('',#350,#351);
#317=VERTEX_POINT('',#352);
#318=CIRCLE('',#353,0.015);
#319=VERTEX_POINT('',#354);
#320=LINE('',#355,#356);
#321=CIRCLE('',#357,0.015);
#322=CIRCLE('',#358,0.01335);
#323=CIRCLE('',#359,0.01265);
#324=CIRCLE('',#360,0.015);
#325=CIRCLE('',#361,0.015);
#326=CIRCLE('',#362,0.01335);
#327=CIRCLE('',#363,0.01265);
#328=CARTESIAN_POINT('',(0.02805,0.01265,-1.5491782009214E-18));
#329=CARTESIAN_POINT('',(0.013,0.01265,-1.5491782009214E-18));
#330=CARTESIAN_POINT('',(0.013,0.01265,-1.5491782009214E-18));
#331=VECTOR('',#364,1.0);
#332=CARTESIAN_POINT('',(0.02805,-0.01265,1.5491782009214E-18));
#333=AXIS2_PLACEMENT_3D('',#365,#366,#367);
#334=CARTESIAN_POINT('',(0.013,-0.01265,1.5491782009214E-18));
#335=CARTESIAN_POINT('',(0.013,-0.01265,1.5491782009214E-18));
#336=VECTOR('',#368,1.0);
#337=AXIS2_PLACEMENT_3D('',#369,#370,#371);
#338=CARTESIAN_POINT('',(0.02805,0.01335,-1.63490347686172E-18));
#339=CARTESIAN_POINT('',(0.03,0.01335,-1.63490347686172E-18));
#340=CARTESIAN_POINT('',(0.029025,0.01335,-1.63490347686172E-18));
#341=VECTOR('',#372,1.0);
#342=CARTESIAN_POINT('',(0.02805,-0.01335,1.63490347686172E-18));
#343=AXIS2_PLACEMENT_3D('',#373,#374,#375);
#344=CARTESIAN_POINT('',(0.03,-0.01335,1.63490347686172E-18));
#345=CARTESIAN_POINT('',(0.029025,-0.01335,1.63490347686172E-18));
#346=VECTOR('',#376,1.0);
#347=AXIS2_PLACEMENT_3D('',#377,#378,#379);
#348=CARTESIAN_POINT('',(0.03,0.015,-1.83697019872103E-18));
#349=CARTESIAN_POINT('',(0.0,0.015,-1.83697019872103E-18));
#350=CARTESIAN_POINT('',(0.015,0.015,-1.83697019872103E-18));
#351=VECTOR('',#380,1.0);
#352=CARTESIAN_POINT('',(0.03,-0.015,1.83697019872103E-18));
#353=AXIS2_PLACEMENT_3D('',#381,#382,#383);
#354=CARTESIAN_POINT('',(0.0,-0.015,-1.83697019872103E-18));
#355=CARTESIAN_POINT('',(0.015,-0.015,1.83697019872103E-18));
#356=VECTOR('',#384,1.0);
#357=AXIS2_PLACEMENT_3D('',#385,#386,#387);
#358=AXIS2_PLACEMENT_3D('',#388,#389,#390);
#359=AXIS2_PLACEMENT_3D('',#391,#392,#393);
#360=AXIS2_PLACEMENT_3D('',#394,#395,#396);
#361=AXIS2_PLACEMENT_3D('',#397,#398,#399);
#362=AXIS2_PLACEMENT_3D('',#400,#401,#402);
#363=AXIS2_PLACEMENT_3D('',#403,#404,#405);
#364=DIRECTION('',(-1.0,-0.0,0.0));
#365=CARTESIAN_POINT('',(0.02805,0.0,0.0));
#366=DIRECTION('',(-1.0,0.0,0.0));
#367=DIRECTION('',(0.0,1.0,0.0));
#368=DIRECTION('',(1.0,-0.0,0.0));
#369=CARTESIAN_POINT('',(0.013,0.0,0.0));
#370=DIRECTION('',(-1.0,0.0,0.0));
#371=DIRECTION('',(0.0,1.0,0.0));
#372=DIRECTION('',(1.0,-0.0,0.0));
#373=CARTESIAN_POINT('',(0.02805,0.0,0.0));
#374=DIRECTION('',(1.0,0.0,0.0));
#375=DIRECTION('',(0.0,1.0,0.0));
#376=DIRECTION('',(-1.0,0.0,0.0));
#377=CARTESIAN_POINT('',(0.03,0.0,0.0));
#378=DIRECTION('',(1.0,0.0,0.0));
#379=DIRECTION('',(0.0,1.0,0.0));
#380=DIRECTION('',(-1.0,0.0,-0.0));
#381=CARTESIAN_POINT('',(0.03,0.0,0.0));
#382=DIRECTION('',(1.0,0.0,0.0));
#383=DIRECTION('',(0.0,1.0,0.0));
#384=DIRECTION('',(1.0,0.0,0.0));
#385=CARTESIAN_POINT('',(0.0,0.0,0.0));
#386=DIRECTION('',(-1.0,0.0,0.0));
#387=DIRECTION('',(0.0,1.0,0.0));
#388=CARTESIAN_POINT('',(0.02805,0.0,0.0));
#389=DIRECTION('',(1.0,0.0,0.0));
#390=DIRECTION('',(0.0,1.0,0.0));
#391=CARTESIAN_POINT('',(0.02805,0.0,0.0));
#392=DIRECTION('',(-1.0,0.0,0.0));
#393=DIRECTION('',(0.0,1.0,0.0));
#394=CARTESIAN_POINT('',(0.0,0.0,0.0));
#395=DIRECTION('',(-1.0,0.0,0.0));
#396=DIRECTION('',(0.0,1.0,0.0));
#397=CARTESIAN_POINT('',(0.03,0.0,0.0));
#398=DIRECTION('',(1.0,0.0,0.0));
#399=DIRECTION('',(0.0,1.0,0.0));
#400=CARTESIAN_POINT('',(0.03,0.0,0.0));
#401=DIRECTION('',(1.0,0.0,0.0));
#402=DIRECTION('',(0.0,1.0,0.0));
#403=CARTESIAN_POINT('',(0.013,0.0,0.0));
#404=DIRECTION('',(-1.0,0.0,0.0));
#405=DIRECTION('',(0.0,1.0,0.0));
#406=PRESENTATION_LAYER_ASSIGNMENT('','',(#139,#141,#290,#293,#319));
#407=PRESENTATION_LAYER_ASSIGNMENT('1','',(#137,#138,#140,#142,#143,#144,#145,#146,#280,#282,#284,#286,#288,#291,#292,#294,#295,#296,#309,#311,#317));
#408=PRESENTATION_LAYER_ASSIGNMENT('9','Layer0',(#62));
ENDSEC;
END-ISO-10303-21;
