ISO-10303-21;
HEADER;
/* Generated by software containing ST-Developer
 * from STEP Tools, Inc. (www.steptools.com) 
 */

FILE_DESCRIPTION(
/* description */ (''),
/* implementation_level */ '2;1');

FILE_NAME(
/* name */ 'Poigne.step',
/* time_stamp */ '2023-10-03T17:37:20+02:00',
/* author */ (''),
/* organization */ (''),
/* preprocessor_version */ 'ST-DEVELOPER v20',
/* originating_system */ 'Autodesk Translation Framework v12.9.0.99',
/* authorisation */ '');

FILE_SCHEMA (('AUTOMOTIVE_DESIGN { 1 0 10303 214 3 1 1 }'));
ENDSEC;

DATA;
#10=MECHANICAL_DESIGN_GEOMETRIC_PRESENTATION_REPRESENTATION('',(#13),#271);
#11=SHAPE_REPRESENTATION_RELATIONSHIP('SRR','None',#277,#12);
#12=ADVANCED_BREP_SHAPE_REPRESENTATION('',(#14),#270);
#13=STYLED_ITEM('',(#286),#14);
#14=MANIFOLD_SOLID_BREP('Corps18',#120);
#15=PLANE('',#126);
#16=PLANE('',#127);
#17=PLANE('',#134);
#18=PLANE('',#135);
#19=FACE_BOUND('',#39,.T.);
#20=FACE_BOUND('',#42,.T.);
#21=FACE_BOUND('',#45,.T.);
#22=FACE_BOUND('',#47,.T.);
#23=CIRCLE('',#124,2.99999999999999);
#24=CIRCLE('',#125,2.99999999999999);
#25=CIRCLE('',#128,26.5);
#26=CIRCLE('',#129,10.5);
#27=CIRCLE('',#131,26.5);
#28=CIRCLE('',#133,10.5);
#29=FACE_OUTER_BOUND('',#37,.T.);
#30=FACE_OUTER_BOUND('',#38,.T.);
#31=FACE_OUTER_BOUND('',#40,.T.);
#32=FACE_OUTER_BOUND('',#41,.T.);
#33=FACE_OUTER_BOUND('',#43,.T.);
#34=FACE_OUTER_BOUND('',#44,.T.);
#35=FACE_OUTER_BOUND('',#46,.T.);
#36=FACE_OUTER_BOUND('',#48,.T.);
#37=EDGE_LOOP('',(#82,#83,#84,#85,#86));
#38=EDGE_LOOP('',(#87,#88,#89,#90));
#39=EDGE_LOOP('',(#91));
#40=EDGE_LOOP('',(#92));
#41=EDGE_LOOP('',(#93));
#42=EDGE_LOOP('',(#94));
#43=EDGE_LOOP('',(#95,#96,#97,#98));
#44=EDGE_LOOP('',(#99,#100,#101,#102));
#45=EDGE_LOOP('',(#103,#104));
#46=EDGE_LOOP('',(#105));
#47=EDGE_LOOP('',(#106));
#48=EDGE_LOOP('',(#107));
#49=LINE('',#211,#53);
#50=LINE('',#250,#54);
#51=LINE('',#261,#55);
#52=LINE('',#265,#56);
#53=VECTOR('',#140,1.99999999999999);
#54=VECTOR('',#145,1.99999999999999);
#55=VECTOR('',#160,27.5);
#56=VECTOR('',#165,17.5);
#57=B_SPLINE_CURVE_WITH_KNOTS('',3,(#174,#175,#176,#177,#178,#179,#180,
#181,#182,#183,#184,#185,#186,#187,#188,#189,#190,#191),.UNSPECIFIED.,.F.,
 .F.,(4,2,2,2,2,2,2,2,4),(0.,0.0755378860497664,0.151075772099533,0.226610188264522,
0.302144604429511,0.3776790205945,0.453213436759489,0.528751322809255,0.604289208859021),
 .UNSPECIFIED.);
#58=B_SPLINE_CURVE_WITH_KNOTS('',3,(#192,#193,#194,#195,#196,#197,#198,
#199,#200,#201,#202,#203,#204,#205,#206,#207,#208,#209),.UNSPECIFIED.,.F.,
 .F.,(4,2,2,2,2,2,2,2,4),(0.604289208859021,0.679827094908787,0.755364980958553,
0.830899397123542,0.906433813288532,0.981968229453521,1.05750264561851,
1.13304053166828,1.20857841771804),.UNSPECIFIED.);
#59=B_SPLINE_CURVE_WITH_KNOTS('',3,(#212,#213,#214,#215,#216,#217,#218,
#219,#220,#221,#222,#223,#224,#225,#226,#227,#228,#229,#230,#231,#232,#233,
#234,#235,#236,#237,#238,#239,#240,#241,#242,#243,#244,#245),
 .UNSPECIFIED.,.T.,.F.,(4,2,2,2,2,2,2,2,2,2,2,2,2,2,2,2,4),(0.,0.078905470393259,
0.157810940786518,0.235848341776526,0.313885742766534,0.391923143756542,
0.469960544746549,0.548866015139808,0.627771485533068,0.706676955926327,
0.785582426319586,0.863619827309594,0.941657228299601,1.01969462928961,
1.09773203027962,1.17663750067288,1.25554297106613),.UNSPECIFIED.);
#60=VERTEX_POINT('',#172);
#61=VERTEX_POINT('',#173);
#62=VERTEX_POINT('',#210);
#63=VERTEX_POINT('',#247);
#64=VERTEX_POINT('',#249);
#65=VERTEX_POINT('',#254);
#66=VERTEX_POINT('',#256);
#67=VERTEX_POINT('',#259);
#68=VERTEX_POINT('',#263);
#69=EDGE_CURVE('',#60,#61,#57,.T.);
#70=EDGE_CURVE('',#61,#60,#58,.T.);
#71=EDGE_CURVE('',#61,#62,#49,.T.);
#72=EDGE_CURVE('',#62,#62,#59,.F.);
#73=EDGE_CURVE('',#63,#63,#23,.F.);
#74=EDGE_CURVE('',#63,#64,#50,.T.);
#75=EDGE_CURVE('',#64,#64,#24,.T.);
#76=EDGE_CURVE('',#65,#65,#25,.T.);
#77=EDGE_CURVE('',#66,#66,#26,.T.);
#78=EDGE_CURVE('',#67,#67,#27,.T.);
#79=EDGE_CURVE('',#67,#65,#51,.T.);
#80=EDGE_CURVE('',#68,#68,#28,.T.);
#81=EDGE_CURVE('',#68,#66,#52,.T.);
#82=ORIENTED_EDGE('',*,*,#69,.F.);
#83=ORIENTED_EDGE('',*,*,#70,.F.);
#84=ORIENTED_EDGE('',*,*,#71,.T.);
#85=ORIENTED_EDGE('',*,*,#72,.T.);
#86=ORIENTED_EDGE('',*,*,#71,.F.);
#87=ORIENTED_EDGE('',*,*,#73,.F.);
#88=ORIENTED_EDGE('',*,*,#74,.T.);
#89=ORIENTED_EDGE('',*,*,#75,.T.);
#90=ORIENTED_EDGE('',*,*,#74,.F.);
#91=ORIENTED_EDGE('',*,*,#72,.F.);
#92=ORIENTED_EDGE('',*,*,#75,.F.);
#93=ORIENTED_EDGE('',*,*,#76,.F.);
#94=ORIENTED_EDGE('',*,*,#77,.T.);
#95=ORIENTED_EDGE('',*,*,#78,.F.);
#96=ORIENTED_EDGE('',*,*,#79,.T.);
#97=ORIENTED_EDGE('',*,*,#76,.T.);
#98=ORIENTED_EDGE('',*,*,#79,.F.);
#99=ORIENTED_EDGE('',*,*,#80,.F.);
#100=ORIENTED_EDGE('',*,*,#81,.T.);
#101=ORIENTED_EDGE('',*,*,#77,.F.);
#102=ORIENTED_EDGE('',*,*,#81,.F.);
#103=ORIENTED_EDGE('',*,*,#69,.T.);
#104=ORIENTED_EDGE('',*,*,#70,.T.);
#105=ORIENTED_EDGE('',*,*,#80,.T.);
#106=ORIENTED_EDGE('',*,*,#73,.T.);
#107=ORIENTED_EDGE('',*,*,#78,.T.);
#108=CYLINDRICAL_SURFACE('',#122,1.99999999999999);
#109=CYLINDRICAL_SURFACE('',#123,2.99999999999999);
#110=CYLINDRICAL_SURFACE('',#130,26.5);
#111=CYLINDRICAL_SURFACE('',#132,10.5);
#112=ADVANCED_FACE('',(#29),#108,.F.);
#113=ADVANCED_FACE('',(#30,#19),#109,.F.);
#114=ADVANCED_FACE('',(#31),#15,.T.);
#115=ADVANCED_FACE('',(#32,#20),#16,.T.);
#116=ADVANCED_FACE('',(#33),#110,.T.);
#117=ADVANCED_FACE('',(#34,#21),#111,.T.);
#118=ADVANCED_FACE('',(#35,#22),#17,.F.);
#119=ADVANCED_FACE('',(#36),#18,.T.);
#120=CLOSED_SHELL('',(#112,#113,#114,#115,#116,#117,#118,#119));
#121=AXIS2_PLACEMENT_3D('',#170,#136,#137);
#122=AXIS2_PLACEMENT_3D('',#171,#138,#139);
#123=AXIS2_PLACEMENT_3D('',#246,#141,#142);
#124=AXIS2_PLACEMENT_3D('',#248,#143,#144);
#125=AXIS2_PLACEMENT_3D('',#251,#146,#147);
#126=AXIS2_PLACEMENT_3D('',#252,#148,#149);
#127=AXIS2_PLACEMENT_3D('',#253,#150,#151);
#128=AXIS2_PLACEMENT_3D('',#255,#152,#153);
#129=AXIS2_PLACEMENT_3D('',#257,#154,#155);
#130=AXIS2_PLACEMENT_3D('',#258,#156,#157);
#131=AXIS2_PLACEMENT_3D('',#260,#158,#159);
#132=AXIS2_PLACEMENT_3D('',#262,#161,#162);
#133=AXIS2_PLACEMENT_3D('',#264,#163,#164);
#134=AXIS2_PLACEMENT_3D('',#266,#166,#167);
#135=AXIS2_PLACEMENT_3D('',#267,#168,#169);
#136=DIRECTION('axis',(0.,0.,1.));
#137=DIRECTION('refdir',(1.,0.,0.));
#138=DIRECTION('center_axis',(1.59872115546023E-14,1.,-4.44089209850063E-16));
#139=DIRECTION('ref_axis',(1.,-1.59872115546023E-14,1.20609472197377E-31));
#140=DIRECTION('',(1.59872115546023E-14,1.,-4.44089209850063E-16));
#141=DIRECTION('center_axis',(0.,7.28583859910259E-16,1.));
#142=DIRECTION('ref_axis',(1.,-2.80662508460895E-32,0.));
#143=DIRECTION('center_axis',(3.85216478025556E-17,-7.35522753814166E-16,
-1.));
#144=DIRECTION('ref_axis',(1.,-2.80662508460895E-32,0.));
#145=DIRECTION('',(0.,7.28583859910259E-16,1.));
#146=DIRECTION('center_axis',(-3.85216478025556E-17,7.35522753814166E-16,
1.));
#147=DIRECTION('ref_axis',(1.,-2.80662508460895E-32,0.));
#148=DIRECTION('center_axis',(3.85216478025556E-17,-7.35522753814166E-16,
-1.));
#149=DIRECTION('ref_axis',(1.,0.,3.85216478025556E-17));
#150=DIRECTION('center_axis',(3.85216478025556E-17,-7.35522753814166E-16,
-1.));
#151=DIRECTION('ref_axis',(-1.,0.,-3.85216478025556E-17));
#152=DIRECTION('center_axis',(-3.85216478025556E-17,7.35522753814166E-16,
1.));
#153=DIRECTION('ref_axis',(-1.,2.85117468912655E-32,0.));
#154=DIRECTION('center_axis',(-3.85216478025556E-17,7.35522753814166E-16,
1.));
#155=DIRECTION('ref_axis',(-1.,2.81365923269068E-32,0.));
#156=DIRECTION('center_axis',(0.,7.40148683083438E-16,1.));
#157=DIRECTION('ref_axis',(-1.,2.85117468912655E-32,0.));
#158=DIRECTION('center_axis',(-3.85216478025556E-17,7.35522753814166E-16,
1.));
#159=DIRECTION('ref_axis',(-1.,2.85117468912655E-32,0.));
#160=DIRECTION('',(0.,-7.40148683083438E-16,-1.));
#161=DIRECTION('center_axis',(0.,-7.30409884621813E-16,-1.));
#162=DIRECTION('ref_axis',(-1.,2.81365923269068E-32,0.));
#163=DIRECTION('center_axis',(3.85216478025556E-17,-7.35522753814166E-16,
-1.));
#164=DIRECTION('ref_axis',(-1.,2.81365923269068E-32,0.));
#165=DIRECTION('',(0.,7.30409884621813E-16,1.));
#166=DIRECTION('center_axis',(-3.85216478025556E-17,7.35522753814166E-16,
1.));
#167=DIRECTION('ref_axis',(-1.,0.,-3.85216478025556E-17));
#168=DIRECTION('center_axis',(-3.85216478025556E-17,7.35522753814166E-16,
1.));
#169=DIRECTION('ref_axis',(-1.,0.,-3.85216478025556E-17));
#170=CARTESIAN_POINT('',(0.,0.,0.));
#171=CARTESIAN_POINT('Origin',(206.982638679572,-46.8833154038155,9.5));
#172=CARTESIAN_POINT('',(208.982638679572,-15.3077640640361,9.49999999999999));
#173=CARTESIAN_POINT('',(204.982638679572,-15.307764064036,9.49999999999998));
#174=CARTESIAN_POINT('Ctrl Pts',(208.982638679572,-15.3077640640361,9.49999999999998));
#175=CARTESIAN_POINT('Ctrl Pts',(208.982638679572,-15.3077640640361,9.24820704650076));
#176=CARTESIAN_POINT('Ctrl Pts',(208.932191531782,-15.3179460772022,8.98006362149088));
#177=CARTESIAN_POINT('Ctrl Pts',(208.72789594671,-15.3544601248175,8.48749447684758));
#178=CARTESIAN_POINT('Ctrl Pts',(208.574080024601,-15.3802362424779,8.26301422028264));
#179=CARTESIAN_POINT('Ctrl Pts',(208.21963260037,-15.4284146976101,7.90856679605129));
#180=CARTESIAN_POINT('Ctrl Pts',(207.995148875234,-15.4539852161501,7.75474449393471));
#181=CARTESIAN_POINT('Ctrl Pts',(207.502567716936,-15.4900265771146,7.55044427988795));
#182=CARTESIAN_POINT('Ctrl Pts',(207.234420066789,-15.4999999999919,7.49999999999999));
#183=CARTESIAN_POINT('Ctrl Pts',(206.730857292356,-15.4999999999919,7.5));
#184=CARTESIAN_POINT('Ctrl Pts',(206.462709642209,-15.4900265771145,7.55044427988796));
#185=CARTESIAN_POINT('Ctrl Pts',(205.970128483911,-15.4539852161501,7.75474449393473));
#186=CARTESIAN_POINT('Ctrl Pts',(205.745644758775,-15.4284146976101,7.90856679605129));
#187=CARTESIAN_POINT('Ctrl Pts',(205.391197334544,-15.3802362424779,8.26301422028265));
#188=CARTESIAN_POINT('Ctrl Pts',(205.237381412435,-15.3544601248174,8.4874944768476));
#189=CARTESIAN_POINT('Ctrl Pts',(205.033085827362,-15.3179460772022,8.98006362149089));
#190=CARTESIAN_POINT('Ctrl Pts',(204.982638679572,-15.307764064036,9.24820704650076));
#191=CARTESIAN_POINT('Ctrl Pts',(204.982638679572,-15.307764064036,9.49999999999998));
#192=CARTESIAN_POINT('Ctrl Pts',(204.982638679572,-15.307764064036,9.49999999999998));
#193=CARTESIAN_POINT('Ctrl Pts',(204.982638679572,-15.307764064036,9.7517929534992));
#194=CARTESIAN_POINT('Ctrl Pts',(205.033085827362,-15.3179460772022,10.0199363785091));
#195=CARTESIAN_POINT('Ctrl Pts',(205.237381412435,-15.3544601248174,10.5125055231524));
#196=CARTESIAN_POINT('Ctrl Pts',(205.391197334543,-15.3802362424779,10.7369857797173));
#197=CARTESIAN_POINT('Ctrl Pts',(205.745644758775,-15.4284146976101,11.0914332039487));
#198=CARTESIAN_POINT('Ctrl Pts',(205.970128483911,-15.4539852161501,11.2452555060652));
#199=CARTESIAN_POINT('Ctrl Pts',(206.462709642209,-15.4900265771145,11.449555720112));
#200=CARTESIAN_POINT('Ctrl Pts',(206.730857292356,-15.4999999999919,11.5));
#201=CARTESIAN_POINT('Ctrl Pts',(207.234420066789,-15.4999999999919,11.5));
#202=CARTESIAN_POINT('Ctrl Pts',(207.502567716936,-15.4900265771146,11.449555720112));
#203=CARTESIAN_POINT('Ctrl Pts',(207.995148875234,-15.4539852161501,11.2452555060653));
#204=CARTESIAN_POINT('Ctrl Pts',(208.21963260037,-15.4284146976101,11.0914332039487));
#205=CARTESIAN_POINT('Ctrl Pts',(208.574080024601,-15.3802362424779,10.7369857797173));
#206=CARTESIAN_POINT('Ctrl Pts',(208.72789594671,-15.3544601248175,10.5125055231524));
#207=CARTESIAN_POINT('Ctrl Pts',(208.932191531782,-15.3179460772022,10.0199363785091));
#208=CARTESIAN_POINT('Ctrl Pts',(208.982638679572,-15.3077640640361,9.7517929534992));
#209=CARTESIAN_POINT('Ctrl Pts',(208.982638679572,-15.3077640640361,9.49999999999998));
#210=CARTESIAN_POINT('',(204.982638679572,-7.23606797749168,9.49999999999998));
#211=CARTESIAN_POINT('',(204.982638679572,-46.8833154038154,9.5));
#212=CARTESIAN_POINT('Ctrl Pts',(204.982638679572,-7.23606797749168,9.49999999999998));
#213=CARTESIAN_POINT('Ctrl Pts',(204.982638679572,-7.23606797749168,9.23698176535578));
#214=CARTESIAN_POINT('Ctrl Pts',(205.036949903412,-7.28720568920006,8.96668203979309));
#215=CARTESIAN_POINT('Ctrl Pts',(205.24280730122,-7.44744753892332,8.47866649100345));
#216=CARTESIAN_POINT('Ctrl Pts',(205.394454907413,-7.55276032241016,8.25975664741284));
#217=CARTESIAN_POINT('Ctrl Pts',(205.74048141385,-7.73771927010016,7.91373014097574));
#218=CARTESIAN_POINT('Ctrl Pts',(205.959808535205,-7.83167295522841,7.76081767122294));
#219=CARTESIAN_POINT('Ctrl Pts',(206.450596205921,-7.96335691022951,7.55375546859693));
#220=CARTESIAN_POINT('Ctrl Pts',(206.722514009606,-7.99999999999191,7.49999999999999));
#221=CARTESIAN_POINT('Ctrl Pts',(207.242763349539,-7.99999999999192,7.49999999999998));
#222=CARTESIAN_POINT('Ctrl Pts',(207.514681153224,-7.96335691022953,7.55375546859691));
#223=CARTESIAN_POINT('Ctrl Pts',(208.005468823939,-7.83167295522845,7.7608176712229));
#224=CARTESIAN_POINT('Ctrl Pts',(208.224795945294,-7.73771927010022,7.91373014097573));
#225=CARTESIAN_POINT('Ctrl Pts',(208.570822451731,-7.55276032241023,8.25975664741282));
#226=CARTESIAN_POINT('Ctrl Pts',(208.722470057925,-7.44744753892338,8.47866649100341));
#227=CARTESIAN_POINT('Ctrl Pts',(208.928327455733,-7.28720568920012,8.96668203979305));
#228=CARTESIAN_POINT('Ctrl Pts',(208.982638679572,-7.23606797749176,9.23698176535578));
#229=CARTESIAN_POINT('Ctrl Pts',(208.982638679572,-7.23606797749176,9.76301823464418));
#230=CARTESIAN_POINT('Ctrl Pts',(208.928327455733,-7.28720568920012,10.0333179602069));
#231=CARTESIAN_POINT('Ctrl Pts',(208.722470057925,-7.44744753892338,10.5213335089965));
#232=CARTESIAN_POINT('Ctrl Pts',(208.570822451731,-7.55276032241023,10.7402433525871));
#233=CARTESIAN_POINT('Ctrl Pts',(208.224795945294,-7.73771927010022,11.0862698590242));
#234=CARTESIAN_POINT('Ctrl Pts',(208.005468823939,-7.83167295522845,11.2391823287771));
#235=CARTESIAN_POINT('Ctrl Pts',(207.514681153224,-7.96335691022953,11.4462445314031));
#236=CARTESIAN_POINT('Ctrl Pts',(207.242763349539,-7.99999999999192,11.5));
#237=CARTESIAN_POINT('Ctrl Pts',(206.722514009606,-7.99999999999191,11.5));
#238=CARTESIAN_POINT('Ctrl Pts',(206.450596205921,-7.9633569102295,11.446244531403));
#239=CARTESIAN_POINT('Ctrl Pts',(205.959808535205,-7.8316729552284,11.239182328777));
#240=CARTESIAN_POINT('Ctrl Pts',(205.74048141385,-7.73771927010016,11.0862698590242));
#241=CARTESIAN_POINT('Ctrl Pts',(205.394454907413,-7.55276032241016,10.7402433525871));
#242=CARTESIAN_POINT('Ctrl Pts',(205.24280730122,-7.44744753892332,10.5213335089965));
#243=CARTESIAN_POINT('Ctrl Pts',(205.036949903412,-7.28720568920006,10.0333179602069));
#244=CARTESIAN_POINT('Ctrl Pts',(204.982638679572,-7.23606797749169,9.76301823464417));
#245=CARTESIAN_POINT('Ctrl Pts',(204.982638679572,-7.23606797749169,9.49999999999998));
#246=CARTESIAN_POINT('Origin',(206.982638679573,-4.99999999999193,4.99999999999998));
#247=CARTESIAN_POINT('',(203.982638679573,-4.99999999999193,4.99999999999998));
#248=CARTESIAN_POINT('Origin',(206.982638679573,-4.99999999999193,4.99999999999998));
#249=CARTESIAN_POINT('',(203.982638679573,-4.99999999999192,21.));
#250=CARTESIAN_POINT('',(203.982638679573,-4.99999999999193,4.99999999999998));
#251=CARTESIAN_POINT('Origin',(206.982638679573,-4.99999999999192,21.));
#252=CARTESIAN_POINT('Origin',(206.982638679573,-4.99999999999192,21.));
#253=CARTESIAN_POINT('Origin',(206.982638679573,-4.99999999999191,14.));
#254=CARTESIAN_POINT('',(233.482638679573,-4.99999999999192,14.));
#255=CARTESIAN_POINT('Origin',(206.982638679573,-4.99999999999192,14.));
#256=CARTESIAN_POINT('',(217.482638679573,-4.99999999999192,14.));
#257=CARTESIAN_POINT('Origin',(206.982638679573,-4.99999999999192,14.));
#258=CARTESIAN_POINT('Origin',(206.982638679573,-4.99999999999192,14.));
#259=CARTESIAN_POINT('',(233.482638679573,-4.99999999999191,29.));
#260=CARTESIAN_POINT('Origin',(206.982638679573,-4.99999999999191,29.));
#261=CARTESIAN_POINT('',(233.482638679573,-4.99999999999192,14.));
#262=CARTESIAN_POINT('Origin',(206.982638679573,-4.99999999999191,29.));
#263=CARTESIAN_POINT('',(217.482638679573,-4.99999999999193,4.99999999999997));
#264=CARTESIAN_POINT('Origin',(206.982638679573,-4.99999999999193,4.99999999999997));
#265=CARTESIAN_POINT('',(217.482638679573,-4.99999999999191,29.));
#266=CARTESIAN_POINT('Origin',(206.982638679573,-4.99999999999193,4.99999999999998));
#267=CARTESIAN_POINT('Origin',(206.982638679573,-4.99999999999191,29.));
#268=UNCERTAINTY_MEASURE_WITH_UNIT(LENGTH_MEASURE(0.01),#272,
'DISTANCE_ACCURACY_VALUE',
'Maximum model space distance between geometric entities at asserted c
onnectivities');
#269=UNCERTAINTY_MEASURE_WITH_UNIT(LENGTH_MEASURE(0.01),#272,
'DISTANCE_ACCURACY_VALUE',
'Maximum model space distance between geometric entities at asserted c
onnectivities');
#270=(
GEOMETRIC_REPRESENTATION_CONTEXT(3)
GLOBAL_UNCERTAINTY_ASSIGNED_CONTEXT((#268))
GLOBAL_UNIT_ASSIGNED_CONTEXT((#272,#273,#274))
REPRESENTATION_CONTEXT('','3D')
);
#271=(
GEOMETRIC_REPRESENTATION_CONTEXT(3)
GLOBAL_UNCERTAINTY_ASSIGNED_CONTEXT((#269))
GLOBAL_UNIT_ASSIGNED_CONTEXT((#272,#273,#274))
REPRESENTATION_CONTEXT('','3D')
);
#272=(
LENGTH_UNIT()
NAMED_UNIT(*)
SI_UNIT(.MILLI.,.METRE.)
);
#273=(
NAMED_UNIT(*)
PLANE_ANGLE_UNIT()
SI_UNIT($,.RADIAN.)
);
#274=(
NAMED_UNIT(*)
SI_UNIT($,.STERADIAN.)
SOLID_ANGLE_UNIT()
);
#275=SHAPE_DEFINITION_REPRESENTATION(#276,#277);
#276=PRODUCT_DEFINITION_SHAPE('',$,#279);
#277=SHAPE_REPRESENTATION('',(#121),#270);
#278=PRODUCT_DEFINITION_CONTEXT('part definition',#283,'design');
#279=PRODUCT_DEFINITION('CONNEXE FAB','CONNEXE FAB v19',#280,#278);
#280=PRODUCT_DEFINITION_FORMATION('',$,#285);
#281=PRODUCT_RELATED_PRODUCT_CATEGORY('CONNEXE FAB v19',
'CONNEXE FAB v19',(#285));
#282=APPLICATION_PROTOCOL_DEFINITION('international standard',
'automotive_design',2009,#283);
#283=APPLICATION_CONTEXT(
'Core Data for Automotive Mechanical Design Process');
#284=PRODUCT_CONTEXT('part definition',#283,'mechanical');
#285=PRODUCT('CONNEXE FAB','CONNEXE FAB v19',$,(#284));
#286=PRESENTATION_STYLE_ASSIGNMENT((#287));
#287=SURFACE_STYLE_USAGE(.BOTH.,#288);
#288=SURFACE_SIDE_STYLE('',(#289));
#289=SURFACE_STYLE_FILL_AREA(#290);
#290=FILL_AREA_STYLE('Acier - Satin\X\E9',(#291));
#291=FILL_AREA_STYLE_COLOUR('Acier - Satin\X\E9',#292);
#292=COLOUR_RGB('Acier - Satin\X\E9',0.627450980392157,0.627450980392157,
0.627450980392157);
ENDSEC;
END-ISO-10303-21;
