ISO-10303-21;
HEADER;
/* Generated by software containing ST-Developer
 * from STEP Tools, Inc. (www.steptools.com) 
 */

FILE_DESCRIPTION(
/* description */ (''),
/* implementation_level */ '2;1');

FILE_NAME(
/* name */ 'ecrou moulinet 2f2 v12.step',
/* time_stamp */ '2023-10-16T22:25:16+02:00',
/* author */ (''),
/* organization */ (''),
/* preprocessor_version */ 'ST-DEVELOPER v20',
/* originating_system */ 'Autodesk Translation Framework v12.9.0.99',
/* authorisation */ '');

FILE_SCHEMA (('AUTOMOTIVE_DESIGN { 1 0 10303 214 3 1 1 }'));
ENDSEC;

DATA;
#10=MECHANICAL_DESIGN_GEOMETRIC_PRESENTATION_REPRESENTATION('',(#13),#567);
#11=SHAPE_REPRESENTATION_RELATIONSHIP('SRR','None',#574,#12);
#12=ADVANCED_BREP_SHAPE_REPRESENTATION('',(#14),#566);
#13=STYLED_ITEM('',(#583),#14);
#14=MANIFOLD_SOLID_BREP('Corps10',#335);
#15=CYLINDRICAL_SURFACE('',#357,5.5);
#16=CYLINDRICAL_SURFACE('',#367,4.5);
#17=CYLINDRICAL_SURFACE('',#372,4.);
#18=CYLINDRICAL_SURFACE('',#374,2.);
#19=CYLINDRICAL_SURFACE('',#375,4.);
#20=FACE_BOUND('',#63,.T.);
#21=FACE_BOUND('',#66,.T.);
#22=FACE_BOUND('',#68,.T.);
#23=FACE_BOUND('',#70,.T.);
#24=FACE_BOUND('',#73,.T.);
#25=FACE_BOUND('',#81,.T.);
#26=CIRCLE('',#356,2.);
#27=CIRCLE('',#358,5.5);
#28=CIRCLE('',#359,5.5);
#29=CIRCLE('',#361,4.5);
#30=CIRCLE('',#362,4.);
#31=CIRCLE('',#364,4.);
#32=CIRCLE('',#366,4.5);
#33=CIRCLE('',#369,4.);
#34=CIRCLE('',#370,2.);
#35=CIRCLE('',#373,4.);
#36=FACE_OUTER_BOUND('',#56,.T.);
#37=FACE_OUTER_BOUND('',#57,.T.);
#38=FACE_OUTER_BOUND('',#58,.T.);
#39=FACE_OUTER_BOUND('',#59,.T.);
#40=FACE_OUTER_BOUND('',#60,.T.);
#41=FACE_OUTER_BOUND('',#61,.T.);
#42=FACE_OUTER_BOUND('',#62,.T.);
#43=FACE_OUTER_BOUND('',#64,.T.);
#44=FACE_OUTER_BOUND('',#65,.T.);
#45=FACE_OUTER_BOUND('',#67,.T.);
#46=FACE_OUTER_BOUND('',#69,.T.);
#47=FACE_OUTER_BOUND('',#71,.T.);
#48=FACE_OUTER_BOUND('',#72,.T.);
#49=FACE_OUTER_BOUND('',#74,.T.);
#50=FACE_OUTER_BOUND('',#75,.T.);
#51=FACE_OUTER_BOUND('',#76,.T.);
#52=FACE_OUTER_BOUND('',#77,.T.);
#53=FACE_OUTER_BOUND('',#78,.T.);
#54=FACE_OUTER_BOUND('',#79,.T.);
#55=FACE_OUTER_BOUND('',#80,.T.);
#56=EDGE_LOOP('',(#216,#217,#218,#219));
#57=EDGE_LOOP('',(#220,#221,#222,#223));
#58=EDGE_LOOP('',(#224,#225,#226,#227));
#59=EDGE_LOOP('',(#228,#229,#230,#231));
#60=EDGE_LOOP('',(#232,#233,#234,#235));
#61=EDGE_LOOP('',(#236,#237,#238,#239));
#62=EDGE_LOOP('',(#240,#241,#242,#243,#244,#245));
#63=EDGE_LOOP('',(#246));
#64=EDGE_LOOP('',(#247,#248,#249,#250));
#65=EDGE_LOOP('',(#251));
#66=EDGE_LOOP('',(#252));
#67=EDGE_LOOP('',(#253));
#68=EDGE_LOOP('',(#254,#255,#256,#257,#258,#259));
#69=EDGE_LOOP('',(#260));
#70=EDGE_LOOP('',(#261));
#71=EDGE_LOOP('',(#262,#263,#264,#265));
#72=EDGE_LOOP('',(#266,#267,#268,#269));
#73=EDGE_LOOP('',(#270));
#74=EDGE_LOOP('',(#271,#272,#273,#274));
#75=EDGE_LOOP('',(#275,#276,#277,#278));
#76=EDGE_LOOP('',(#279,#280,#281,#282));
#77=EDGE_LOOP('',(#283,#284,#285,#286));
#78=EDGE_LOOP('',(#287,#288,#289,#290));
#79=EDGE_LOOP('',(#291,#292,#293,#294));
#80=EDGE_LOOP('',(#295));
#81=EDGE_LOOP('',(#296,#297,#298,#299));
#82=LINE('',#477,#114);
#83=LINE('',#479,#115);
#84=LINE('',#481,#116);
#85=LINE('',#482,#117);
#86=LINE('',#485,#118);
#87=LINE('',#487,#119);
#88=LINE('',#488,#120);
#89=LINE('',#491,#121);
#90=LINE('',#493,#122);
#91=LINE('',#494,#123);
#92=LINE('',#497,#124);
#93=LINE('',#499,#125);
#94=LINE('',#500,#126);
#95=LINE('',#503,#127);
#96=LINE('',#505,#128);
#97=LINE('',#506,#129);
#98=LINE('',#508,#130);
#99=LINE('',#509,#131);
#100=LINE('',#517,#132);
#101=LINE('',#531,#133);
#102=LINE('',#535,#134);
#103=LINE('',#537,#135);
#104=LINE('',#540,#136);
#105=LINE('',#545,#137);
#106=LINE('',#547,#138);
#107=LINE('',#548,#139);
#108=LINE('',#551,#140);
#109=LINE('',#554,#141);
#110=LINE('',#556,#142);
#111=LINE('',#559,#143);
#112=LINE('',#560,#144);
#113=LINE('',#562,#145);
#114=VECTOR('',#383,10.);
#115=VECTOR('',#384,10.);
#116=VECTOR('',#385,10.);
#117=VECTOR('',#386,10.);
#118=VECTOR('',#389,10.);
#119=VECTOR('',#390,10.);
#120=VECTOR('',#391,10.);
#121=VECTOR('',#394,10.);
#122=VECTOR('',#395,10.);
#123=VECTOR('',#396,10.);
#124=VECTOR('',#399,10.);
#125=VECTOR('',#400,10.);
#126=VECTOR('',#401,10.);
#127=VECTOR('',#404,10.);
#128=VECTOR('',#405,10.);
#129=VECTOR('',#406,10.);
#130=VECTOR('',#409,10.);
#131=VECTOR('',#410,10.);
#132=VECTOR('',#419,5.5);
#133=VECTOR('',#438,4.5);
#134=VECTOR('',#441,10.);
#135=VECTOR('',#442,10.);
#136=VECTOR('',#445,10.);
#137=VECTOR('',#450,10.);
#138=VECTOR('',#451,10.);
#139=VECTOR('',#452,10.);
#140=VECTOR('',#455,10.);
#141=VECTOR('',#460,2.);
#142=VECTOR('',#463,4.);
#143=VECTOR('',#466,10.);
#144=VECTOR('',#467,10.);
#145=VECTOR('',#470,10.);
#146=VERTEX_POINT('',#475);
#147=VERTEX_POINT('',#476);
#148=VERTEX_POINT('',#478);
#149=VERTEX_POINT('',#480);
#150=VERTEX_POINT('',#484);
#151=VERTEX_POINT('',#486);
#152=VERTEX_POINT('',#490);
#153=VERTEX_POINT('',#492);
#154=VERTEX_POINT('',#496);
#155=VERTEX_POINT('',#498);
#156=VERTEX_POINT('',#502);
#157=VERTEX_POINT('',#504);
#158=VERTEX_POINT('',#511);
#159=VERTEX_POINT('',#514);
#160=VERTEX_POINT('',#516);
#161=VERTEX_POINT('',#520);
#162=VERTEX_POINT('',#522);
#163=VERTEX_POINT('',#525);
#164=VERTEX_POINT('',#528);
#165=VERTEX_POINT('',#533);
#166=VERTEX_POINT('',#534);
#167=VERTEX_POINT('',#536);
#168=VERTEX_POINT('',#538);
#169=VERTEX_POINT('',#541);
#170=VERTEX_POINT('',#544);
#171=VERTEX_POINT('',#546);
#172=VERTEX_POINT('',#550);
#173=VERTEX_POINT('',#558);
#174=EDGE_CURVE('',#146,#147,#82,.T.);
#175=EDGE_CURVE('',#146,#148,#83,.T.);
#176=EDGE_CURVE('',#148,#149,#84,.T.);
#177=EDGE_CURVE('',#147,#149,#85,.T.);
#178=EDGE_CURVE('',#150,#146,#86,.T.);
#179=EDGE_CURVE('',#150,#151,#87,.T.);
#180=EDGE_CURVE('',#151,#148,#88,.T.);
#181=EDGE_CURVE('',#152,#150,#89,.T.);
#182=EDGE_CURVE('',#152,#153,#90,.T.);
#183=EDGE_CURVE('',#153,#151,#91,.T.);
#184=EDGE_CURVE('',#154,#152,#92,.T.);
#185=EDGE_CURVE('',#154,#155,#93,.T.);
#186=EDGE_CURVE('',#155,#153,#94,.T.);
#187=EDGE_CURVE('',#156,#154,#95,.T.);
#188=EDGE_CURVE('',#156,#157,#96,.T.);
#189=EDGE_CURVE('',#157,#155,#97,.T.);
#190=EDGE_CURVE('',#147,#156,#98,.T.);
#191=EDGE_CURVE('',#149,#157,#99,.T.);
#192=EDGE_CURVE('',#158,#158,#26,.T.);
#193=EDGE_CURVE('',#159,#159,#27,.T.);
#194=EDGE_CURVE('',#159,#160,#100,.T.);
#195=EDGE_CURVE('',#160,#160,#28,.T.);
#196=EDGE_CURVE('',#161,#161,#29,.T.);
#197=EDGE_CURVE('',#162,#162,#30,.T.);
#198=EDGE_CURVE('',#163,#163,#31,.T.);
#199=EDGE_CURVE('',#164,#164,#32,.T.);
#200=EDGE_CURVE('',#161,#164,#101,.T.);
#201=EDGE_CURVE('',#165,#166,#102,.T.);
#202=EDGE_CURVE('',#167,#165,#103,.T.);
#203=EDGE_CURVE('',#168,#167,#33,.T.);
#204=EDGE_CURVE('',#166,#168,#104,.T.);
#205=EDGE_CURVE('',#169,#169,#34,.T.);
#206=EDGE_CURVE('',#168,#170,#105,.T.);
#207=EDGE_CURVE('',#171,#170,#106,.T.);
#208=EDGE_CURVE('',#166,#171,#107,.T.);
#209=EDGE_CURVE('',#167,#172,#108,.T.);
#210=EDGE_CURVE('',#172,#170,#35,.T.);
#211=EDGE_CURVE('',#158,#169,#109,.T.);
#212=EDGE_CURVE('',#162,#163,#110,.T.);
#213=EDGE_CURVE('',#173,#165,#111,.T.);
#214=EDGE_CURVE('',#173,#172,#112,.T.);
#215=EDGE_CURVE('',#173,#171,#113,.T.);
#216=ORIENTED_EDGE('',*,*,#174,.F.);
#217=ORIENTED_EDGE('',*,*,#175,.T.);
#218=ORIENTED_EDGE('',*,*,#176,.T.);
#219=ORIENTED_EDGE('',*,*,#177,.F.);
#220=ORIENTED_EDGE('',*,*,#178,.F.);
#221=ORIENTED_EDGE('',*,*,#179,.T.);
#222=ORIENTED_EDGE('',*,*,#180,.T.);
#223=ORIENTED_EDGE('',*,*,#175,.F.);
#224=ORIENTED_EDGE('',*,*,#181,.F.);
#225=ORIENTED_EDGE('',*,*,#182,.T.);
#226=ORIENTED_EDGE('',*,*,#183,.T.);
#227=ORIENTED_EDGE('',*,*,#179,.F.);
#228=ORIENTED_EDGE('',*,*,#184,.F.);
#229=ORIENTED_EDGE('',*,*,#185,.T.);
#230=ORIENTED_EDGE('',*,*,#186,.T.);
#231=ORIENTED_EDGE('',*,*,#182,.F.);
#232=ORIENTED_EDGE('',*,*,#187,.F.);
#233=ORIENTED_EDGE('',*,*,#188,.T.);
#234=ORIENTED_EDGE('',*,*,#189,.T.);
#235=ORIENTED_EDGE('',*,*,#185,.F.);
#236=ORIENTED_EDGE('',*,*,#190,.F.);
#237=ORIENTED_EDGE('',*,*,#177,.T.);
#238=ORIENTED_EDGE('',*,*,#191,.T.);
#239=ORIENTED_EDGE('',*,*,#188,.F.);
#240=ORIENTED_EDGE('',*,*,#191,.F.);
#241=ORIENTED_EDGE('',*,*,#176,.F.);
#242=ORIENTED_EDGE('',*,*,#180,.F.);
#243=ORIENTED_EDGE('',*,*,#183,.F.);
#244=ORIENTED_EDGE('',*,*,#186,.F.);
#245=ORIENTED_EDGE('',*,*,#189,.F.);
#246=ORIENTED_EDGE('',*,*,#192,.F.);
#247=ORIENTED_EDGE('',*,*,#193,.F.);
#248=ORIENTED_EDGE('',*,*,#194,.T.);
#249=ORIENTED_EDGE('',*,*,#195,.F.);
#250=ORIENTED_EDGE('',*,*,#194,.F.);
#251=ORIENTED_EDGE('',*,*,#196,.T.);
#252=ORIENTED_EDGE('',*,*,#197,.F.);
#253=ORIENTED_EDGE('',*,*,#198,.T.);
#254=ORIENTED_EDGE('',*,*,#174,.T.);
#255=ORIENTED_EDGE('',*,*,#190,.T.);
#256=ORIENTED_EDGE('',*,*,#187,.T.);
#257=ORIENTED_EDGE('',*,*,#184,.T.);
#258=ORIENTED_EDGE('',*,*,#181,.T.);
#259=ORIENTED_EDGE('',*,*,#178,.T.);
#260=ORIENTED_EDGE('',*,*,#193,.T.);
#261=ORIENTED_EDGE('',*,*,#199,.F.);
#262=ORIENTED_EDGE('',*,*,#196,.F.);
#263=ORIENTED_EDGE('',*,*,#200,.T.);
#264=ORIENTED_EDGE('',*,*,#199,.T.);
#265=ORIENTED_EDGE('',*,*,#200,.F.);
#266=ORIENTED_EDGE('',*,*,#201,.F.);
#267=ORIENTED_EDGE('',*,*,#202,.F.);
#268=ORIENTED_EDGE('',*,*,#203,.F.);
#269=ORIENTED_EDGE('',*,*,#204,.F.);
#270=ORIENTED_EDGE('',*,*,#205,.F.);
#271=ORIENTED_EDGE('',*,*,#204,.T.);
#272=ORIENTED_EDGE('',*,*,#206,.T.);
#273=ORIENTED_EDGE('',*,*,#207,.F.);
#274=ORIENTED_EDGE('',*,*,#208,.F.);
#275=ORIENTED_EDGE('',*,*,#203,.T.);
#276=ORIENTED_EDGE('',*,*,#209,.T.);
#277=ORIENTED_EDGE('',*,*,#210,.T.);
#278=ORIENTED_EDGE('',*,*,#206,.F.);
#279=ORIENTED_EDGE('',*,*,#192,.T.);
#280=ORIENTED_EDGE('',*,*,#211,.T.);
#281=ORIENTED_EDGE('',*,*,#205,.T.);
#282=ORIENTED_EDGE('',*,*,#211,.F.);
#283=ORIENTED_EDGE('',*,*,#197,.T.);
#284=ORIENTED_EDGE('',*,*,#212,.T.);
#285=ORIENTED_EDGE('',*,*,#198,.F.);
#286=ORIENTED_EDGE('',*,*,#212,.F.);
#287=ORIENTED_EDGE('',*,*,#202,.T.);
#288=ORIENTED_EDGE('',*,*,#213,.F.);
#289=ORIENTED_EDGE('',*,*,#214,.T.);
#290=ORIENTED_EDGE('',*,*,#209,.F.);
#291=ORIENTED_EDGE('',*,*,#201,.T.);
#292=ORIENTED_EDGE('',*,*,#208,.T.);
#293=ORIENTED_EDGE('',*,*,#215,.F.);
#294=ORIENTED_EDGE('',*,*,#213,.T.);
#295=ORIENTED_EDGE('',*,*,#195,.T.);
#296=ORIENTED_EDGE('',*,*,#207,.T.);
#297=ORIENTED_EDGE('',*,*,#210,.F.);
#298=ORIENTED_EDGE('',*,*,#214,.F.);
#299=ORIENTED_EDGE('',*,*,#215,.T.);
#300=PLANE('',#349);
#301=PLANE('',#350);
#302=PLANE('',#351);
#303=PLANE('',#352);
#304=PLANE('',#353);
#305=PLANE('',#354);
#306=PLANE('',#355);
#307=PLANE('',#360);
#308=PLANE('',#363);
#309=PLANE('',#365);
#310=PLANE('',#368);
#311=PLANE('',#371);
#312=PLANE('',#376);
#313=PLANE('',#377);
#314=PLANE('',#378);
#315=ADVANCED_FACE('',(#36),#300,.F.);
#316=ADVANCED_FACE('',(#37),#301,.F.);
#317=ADVANCED_FACE('',(#38),#302,.F.);
#318=ADVANCED_FACE('',(#39),#303,.F.);
#319=ADVANCED_FACE('',(#40),#304,.F.);
#320=ADVANCED_FACE('',(#41),#305,.F.);
#321=ADVANCED_FACE('',(#42,#20),#306,.T.);
#322=ADVANCED_FACE('',(#43),#15,.T.);
#323=ADVANCED_FACE('',(#44,#21),#307,.T.);
#324=ADVANCED_FACE('',(#45,#22),#308,.T.);
#325=ADVANCED_FACE('',(#46,#23),#309,.T.);
#326=ADVANCED_FACE('',(#47),#16,.T.);
#327=ADVANCED_FACE('',(#48,#24),#310,.T.);
#328=ADVANCED_FACE('',(#49),#311,.F.);
#329=ADVANCED_FACE('',(#50),#17,.T.);
#330=ADVANCED_FACE('',(#51),#18,.F.);
#331=ADVANCED_FACE('',(#52),#19,.T.);
#332=ADVANCED_FACE('',(#53),#312,.F.);
#333=ADVANCED_FACE('',(#54),#313,.T.);
#334=ADVANCED_FACE('',(#55,#25),#314,.F.);
#335=CLOSED_SHELL('',(#315,#316,#317,#318,#319,#320,#321,#322,#323,#324,
#325,#326,#327,#328,#329,#330,#331,#332,#333,#334));
#336=DERIVED_UNIT_ELEMENT(#338,1.);
#337=DERIVED_UNIT_ELEMENT(#569,-3.);
#338=(
MASS_UNIT()
NAMED_UNIT(*)
SI_UNIT(.KILO.,.GRAM.)
);
#339=DERIVED_UNIT((#336,#337));
#340=MEASURE_REPRESENTATION_ITEM('density measure',
POSITIVE_RATIO_MEASURE(7850.),#339);
#341=PROPERTY_DEFINITION_REPRESENTATION(#346,#343);
#342=PROPERTY_DEFINITION_REPRESENTATION(#347,#344);
#343=REPRESENTATION('material name',(#345),#566);
#344=REPRESENTATION('density',(#340),#566);
#345=DESCRIPTIVE_REPRESENTATION_ITEM('Acier','Acier');
#346=PROPERTY_DEFINITION('material property','material name',#576);
#347=PROPERTY_DEFINITION('material property','density of part',#576);
#348=AXIS2_PLACEMENT_3D('',#473,#379,#380);
#349=AXIS2_PLACEMENT_3D('',#474,#381,#382);
#350=AXIS2_PLACEMENT_3D('',#483,#387,#388);
#351=AXIS2_PLACEMENT_3D('',#489,#392,#393);
#352=AXIS2_PLACEMENT_3D('',#495,#397,#398);
#353=AXIS2_PLACEMENT_3D('',#501,#402,#403);
#354=AXIS2_PLACEMENT_3D('',#507,#407,#408);
#355=AXIS2_PLACEMENT_3D('',#510,#411,#412);
#356=AXIS2_PLACEMENT_3D('',#512,#413,#414);
#357=AXIS2_PLACEMENT_3D('',#513,#415,#416);
#358=AXIS2_PLACEMENT_3D('',#515,#417,#418);
#359=AXIS2_PLACEMENT_3D('',#518,#420,#421);
#360=AXIS2_PLACEMENT_3D('',#519,#422,#423);
#361=AXIS2_PLACEMENT_3D('',#521,#424,#425);
#362=AXIS2_PLACEMENT_3D('',#523,#426,#427);
#363=AXIS2_PLACEMENT_3D('',#524,#428,#429);
#364=AXIS2_PLACEMENT_3D('',#526,#430,#431);
#365=AXIS2_PLACEMENT_3D('',#527,#432,#433);
#366=AXIS2_PLACEMENT_3D('',#529,#434,#435);
#367=AXIS2_PLACEMENT_3D('',#530,#436,#437);
#368=AXIS2_PLACEMENT_3D('',#532,#439,#440);
#369=AXIS2_PLACEMENT_3D('',#539,#443,#444);
#370=AXIS2_PLACEMENT_3D('',#542,#446,#447);
#371=AXIS2_PLACEMENT_3D('',#543,#448,#449);
#372=AXIS2_PLACEMENT_3D('',#549,#453,#454);
#373=AXIS2_PLACEMENT_3D('',#552,#456,#457);
#374=AXIS2_PLACEMENT_3D('',#553,#458,#459);
#375=AXIS2_PLACEMENT_3D('',#555,#461,#462);
#376=AXIS2_PLACEMENT_3D('',#557,#464,#465);
#377=AXIS2_PLACEMENT_3D('',#561,#468,#469);
#378=AXIS2_PLACEMENT_3D('',#563,#471,#472);
#379=DIRECTION('axis',(0.,0.,1.));
#380=DIRECTION('refdir',(1.,0.,0.));
#381=DIRECTION('center_axis',(0.999516029355853,-0.0311079903032928,0.));
#382=DIRECTION('ref_axis',(-0.0311079903032928,-0.999516029355853,0.));
#383=DIRECTION('',(-0.0311079903032928,-0.999516029355853,0.));
#384=DIRECTION('',(0.,0.,-1.));
#385=DIRECTION('',(-0.0311079903032928,-0.999516029355853,0.));
#386=DIRECTION('',(0.,0.,-1.));
#387=DIRECTION('center_axis',(0.526698324541258,0.850052277760275,0.));
#388=DIRECTION('ref_axis',(0.850052277760275,-0.526698324541258,0.));
#389=DIRECTION('',(0.850052277760275,-0.526698324541258,0.));
#390=DIRECTION('',(0.,0.,-1.));
#391=DIRECTION('',(0.850052277760275,-0.526698324541258,0.));
#392=DIRECTION('center_axis',(-0.472817704814595,0.881160268063568,0.));
#393=DIRECTION('ref_axis',(0.881160268063568,0.472817704814595,0.));
#394=DIRECTION('',(0.881160268063568,0.472817704814595,0.));
#395=DIRECTION('',(0.,0.,-1.));
#396=DIRECTION('',(0.881160268063568,0.472817704814595,0.));
#397=DIRECTION('center_axis',(-0.999516029355853,0.0311079903032932,0.));
#398=DIRECTION('ref_axis',(0.0311079903032932,0.999516029355853,0.));
#399=DIRECTION('',(0.0311079903032932,0.999516029355853,0.));
#400=DIRECTION('',(0.,0.,-1.));
#401=DIRECTION('',(0.0311079903032932,0.999516029355853,0.));
#402=DIRECTION('center_axis',(-0.526698324541259,-0.850052277760275,0.));
#403=DIRECTION('ref_axis',(-0.850052277760275,0.526698324541259,0.));
#404=DIRECTION('',(-0.850052277760275,0.526698324541259,0.));
#405=DIRECTION('',(0.,0.,-1.));
#406=DIRECTION('',(-0.850052277760275,0.526698324541258,0.));
#407=DIRECTION('center_axis',(0.472817704814595,-0.881160268063568,0.));
#408=DIRECTION('ref_axis',(-0.881160268063568,-0.472817704814595,0.));
#409=DIRECTION('',(-0.881160268063568,-0.472817704814595,0.));
#410=DIRECTION('',(-0.881160268063568,-0.472817704814595,0.));
#411=DIRECTION('center_axis',(0.,0.,1.));
#412=DIRECTION('ref_axis',(-1.,0.,0.));
#413=DIRECTION('center_axis',(0.,0.,1.));
#414=DIRECTION('ref_axis',(-1.,0.,0.));
#415=DIRECTION('center_axis',(0.,0.,-1.));
#416=DIRECTION('ref_axis',(-1.,0.,0.));
#417=DIRECTION('center_axis',(0.,0.,1.));
#418=DIRECTION('ref_axis',(-1.,0.,0.));
#419=DIRECTION('',(0.,0.,-1.));
#420=DIRECTION('center_axis',(0.,0.,-1.));
#421=DIRECTION('ref_axis',(-1.,0.,0.));
#422=DIRECTION('center_axis',(0.,0.,1.));
#423=DIRECTION('ref_axis',(-1.,0.,0.));
#424=DIRECTION('center_axis',(0.,0.,1.));
#425=DIRECTION('ref_axis',(-1.,0.,0.));
#426=DIRECTION('center_axis',(0.,0.,1.));
#427=DIRECTION('ref_axis',(-1.,0.,0.));
#428=DIRECTION('center_axis',(0.,0.,1.));
#429=DIRECTION('ref_axis',(-1.,0.,0.));
#430=DIRECTION('center_axis',(0.,0.,1.));
#431=DIRECTION('ref_axis',(-1.,0.,0.));
#432=DIRECTION('center_axis',(0.,0.,1.));
#433=DIRECTION('ref_axis',(-0.939692620785909,-0.342020143325668,0.));
#434=DIRECTION('center_axis',(0.,0.,1.));
#435=DIRECTION('ref_axis',(-1.,0.,0.));
#436=DIRECTION('center_axis',(0.,0.,1.));
#437=DIRECTION('ref_axis',(-1.,0.,0.));
#438=DIRECTION('',(0.,0.,-1.));
#439=DIRECTION('center_axis',(0.,0.,-1.));
#440=DIRECTION('ref_axis',(0.939692620785909,0.342020143325668,0.));
#441=DIRECTION('',(-0.939692620785909,-0.342020143325669,0.));
#442=DIRECTION('',(-0.342020143325668,0.939692620785909,0.));
#443=DIRECTION('center_axis',(0.,0.,1.));
#444=DIRECTION('ref_axis',(0.939692620785909,0.342020143325668,0.));
#445=DIRECTION('',(0.342020143325668,-0.939692620785909,0.));
#446=DIRECTION('center_axis',(0.,0.,-1.));
#447=DIRECTION('ref_axis',(-1.,0.,0.));
#448=DIRECTION('center_axis',(0.939692620785909,0.342020143325668,0.));
#449=DIRECTION('ref_axis',(-0.342020143325668,0.939692620785909,0.));
#450=DIRECTION('',(0.,0.,1.));
#451=DIRECTION('',(0.342020143325669,-0.939692620785909,0.));
#452=DIRECTION('',(0.,0.,1.));
#453=DIRECTION('center_axis',(0.,0.,1.));
#454=DIRECTION('ref_axis',(0.339582286359969,-0.940576350324914,0.));
#455=DIRECTION('',(0.,0.,1.));
#456=DIRECTION('center_axis',(0.,0.,-1.));
#457=DIRECTION('ref_axis',(1.,0.,0.));
#458=DIRECTION('center_axis',(0.,0.,-1.));
#459=DIRECTION('ref_axis',(-1.,0.,0.));
#460=DIRECTION('',(0.,0.,-1.));
#461=DIRECTION('center_axis',(0.,0.,-1.));
#462=DIRECTION('ref_axis',(-1.,0.,0.));
#463=DIRECTION('',(0.,0.,1.));
#464=DIRECTION('center_axis',(-0.939692620785909,-0.342020143325668,0.));
#465=DIRECTION('ref_axis',(0.342020143325668,-0.939692620785909,0.));
#466=DIRECTION('',(0.,0.,-1.));
#467=DIRECTION('',(0.342020143325668,-0.939692620785909,0.));
#468=DIRECTION('center_axis',(-0.342020143325669,0.939692620785909,0.));
#469=DIRECTION('ref_axis',(0.,0.,1.));
#470=DIRECTION('',(-0.939692620785909,-0.342020143325669,0.));
#471=DIRECTION('center_axis',(0.,0.,1.));
#472=DIRECTION('ref_axis',(-0.939692620785909,-0.342020143325668,0.));
#473=CARTESIAN_POINT('',(0.,0.,0.));
#474=CARTESIAN_POINT('Origin',(2.28932153084567,1.22841643118547,31.));
#475=CARTESIAN_POINT('',(2.28932153084567,1.22841643118547,31.));
#476=CARTESIAN_POINT('',(2.20850060125567,-1.36840238755029,31.));
#477=CARTESIAN_POINT('',(2.26911629844817,0.579211726501532,31.));
#478=CARTESIAN_POINT('',(2.28932153084567,1.22841643118547,26.));
#479=CARTESIAN_POINT('',(2.28932153084567,1.22841643118547,31.));
#480=CARTESIAN_POINT('',(2.20850060125567,-1.36840238755029,26.));
#481=CARTESIAN_POINT('',(2.20850060125567,-1.36840238755029,26.));
#482=CARTESIAN_POINT('',(2.20850060125567,-1.36840238755029,31.));
#483=CARTESIAN_POINT('Origin',(0.0808209295899953,2.59681881873576,31.));
#484=CARTESIAN_POINT('',(0.0808209295899952,2.59681881873576,31.));
#485=CARTESIAN_POINT('',(0.632946079903913,2.25471822184819,31.));
#486=CARTESIAN_POINT('',(0.0808209295899953,2.59681881873576,26.));
#487=CARTESIAN_POINT('',(0.0808209295899952,2.59681881873576,31.));
#488=CARTESIAN_POINT('',(2.28932153084567,1.22841643118547,26.));
#489=CARTESIAN_POINT('Origin',(-2.20850060125567,1.36840238755029,31.));
#490=CARTESIAN_POINT('',(-2.20850060125567,1.36840238755029,31.));
#491=CARTESIAN_POINT('',(-1.63617021854425,1.67550649534666,31.));
#492=CARTESIAN_POINT('',(-2.20850060125567,1.36840238755029,26.));
#493=CARTESIAN_POINT('',(-2.20850060125567,1.36840238755029,31.));
#494=CARTESIAN_POINT('',(0.0808209295899952,2.59681881873576,26.));
#495=CARTESIAN_POINT('Origin',(-2.28932153084567,-1.22841643118547,31.));
#496=CARTESIAN_POINT('',(-2.28932153084567,-1.22841643118547,31.));
#497=CARTESIAN_POINT('',(-2.26911629844817,-0.579211726501532,31.));
#498=CARTESIAN_POINT('',(-2.28932153084567,-1.22841643118547,26.));
#499=CARTESIAN_POINT('',(-2.28932153084567,-1.22841643118547,31.));
#500=CARTESIAN_POINT('',(-2.20850060125567,1.36840238755029,26.));
#501=CARTESIAN_POINT('Origin',(-0.0808209295899961,-2.59681881873576,31.));
#502=CARTESIAN_POINT('',(-0.0808209295899961,-2.59681881873576,31.));
#503=CARTESIAN_POINT('',(-0.632946079903914,-2.25471822184819,31.));
#504=CARTESIAN_POINT('',(-0.0808209295899961,-2.59681881873576,26.));
#505=CARTESIAN_POINT('',(-0.0808209295899961,-2.59681881873576,31.));
#506=CARTESIAN_POINT('',(-2.28932153084567,-1.22841643118547,26.));
#507=CARTESIAN_POINT('Origin',(2.20850060125567,-1.36840238755029,31.));
#508=CARTESIAN_POINT('',(1.63617021854426,-1.67550649534666,31.));
#509=CARTESIAN_POINT('',(-0.0808209295899961,-2.59681881873576,26.));
#510=CARTESIAN_POINT('Origin',(-2.77555756156289E-16,0.,26.));
#511=CARTESIAN_POINT('',(2.,2.44929359829471E-16,26.));
#512=CARTESIAN_POINT('Origin',(0.,0.,26.));
#513=CARTESIAN_POINT('Origin',(0.,0.,24.));
#514=CARTESIAN_POINT('',(5.5,6.73555739531044E-16,24.));
#515=CARTESIAN_POINT('Origin',(0.,0.,24.));
#516=CARTESIAN_POINT('',(5.5,-6.73555739531044E-16,21.));
#517=CARTESIAN_POINT('',(5.5,-6.73555739531044E-16,24.));
#518=CARTESIAN_POINT('Origin',(0.,0.,21.));
#519=CARTESIAN_POINT('Origin',(0.,0.,28.));
#520=CARTESIAN_POINT('',(4.5,5.51091059616309E-16,28.));
#521=CARTESIAN_POINT('Origin',(0.,0.,28.));
#522=CARTESIAN_POINT('',(4.,4.89858719658941E-16,28.));
#523=CARTESIAN_POINT('Origin',(0.,0.,28.));
#524=CARTESIAN_POINT('Origin',(0.,0.,31.));
#525=CARTESIAN_POINT('',(4.,5.55111512312578E-16,31.));
#526=CARTESIAN_POINT('Origin',(0.,0.,31.));
#527=CARTESIAN_POINT('Origin',(0.,0.,24.));
#528=CARTESIAN_POINT('',(4.5,5.51091059616309E-16,24.));
#529=CARTESIAN_POINT('Origin',(0.,0.,24.));
#530=CARTESIAN_POINT('Origin',(0.,0.,26.));
#531=CARTESIAN_POINT('',(4.5,5.51091059616309E-16,26.));
#532=CARTESIAN_POINT('Origin',(0.,0.,16.));
#533=CARTESIAN_POINT('',(-0.863773001271207,5.03416990212585,16.));
#534=CARTESIAN_POINT('',(-2.55521971868584,4.41853364413965,16.));
#535=CARTESIAN_POINT('',(-2.18409112330087,4.55361340594481,16.));
#536=CARTESIAN_POINT('',(-0.476978107940846,3.97145966674032,16.));
#537=CARTESIAN_POINT('',(0.021447193008344,2.60204740709755,16.));
#538=CARTESIAN_POINT('',(-2.17002123064205,3.36020949623126,16.));
#539=CARTESIAN_POINT('Origin',(0.,0.,16.));
#540=CARTESIAN_POINT('',(-1.5031238417453,1.52792397914419,16.));
#541=CARTESIAN_POINT('',(2.,2.44929359829471E-16,16.));
#542=CARTESIAN_POINT('Origin',(0.,0.,16.));
#543=CARTESIAN_POINT('Origin',(-2.17002123064205,3.36020949623127,10.2));
#544=CARTESIAN_POINT('',(-2.17002123064205,3.36020949623127,21.));
#545=CARTESIAN_POINT('',(-2.17002123064205,3.36020949623127,10.2));
#546=CARTESIAN_POINT('',(-2.55521971868584,4.41853364413965,21.));
#547=CARTESIAN_POINT('',(-1.61021804993578,1.82216289790191,21.));
#548=CARTESIAN_POINT('',(-2.55521971868584,4.41853364413965,18.));
#549=CARTESIAN_POINT('Origin',(0.,0.,-7.));
#550=CARTESIAN_POINT('',(-0.476978107940849,3.97145966674033,21.));
#551=CARTESIAN_POINT('',(-0.476978107940849,3.97145966674033,10.2));
#552=CARTESIAN_POINT('Origin',(0.,0.,21.));
#553=CARTESIAN_POINT('Origin',(0.,0.,24.5));
#554=CARTESIAN_POINT('',(2.,-2.44929359829471E-16,24.5));
#555=CARTESIAN_POINT('Origin',(0.,0.,31.));
#556=CARTESIAN_POINT('',(4.,-4.89858719658941E-16,31.));
#557=CARTESIAN_POINT('Origin',(-0.8123258785494,4.89282009415178,10.2));
#558=CARTESIAN_POINT('',(-0.863773001271207,5.03416990212585,21.));
#559=CARTESIAN_POINT('',(-0.863773001271207,5.03416990212585,18.));
#560=CARTESIAN_POINT('',(-0.557283734400084,4.19209756209224,21.));
#561=CARTESIAN_POINT('Origin',(-2.64918898076443,4.38433162980708,18.));
#562=CARTESIAN_POINT('',(-2.18409112330087,4.55361340594481,21.));
#563=CARTESIAN_POINT('Origin',(0.,0.,21.));
#564=UNCERTAINTY_MEASURE_WITH_UNIT(LENGTH_MEASURE(0.01),#568,
'DISTANCE_ACCURACY_VALUE',
'Maximum model space distance between geometric entities at asserted c
onnectivities');
#565=UNCERTAINTY_MEASURE_WITH_UNIT(LENGTH_MEASURE(0.01),#568,
'DISTANCE_ACCURACY_VALUE',
'Maximum model space distance between geometric entities at asserted c
onnectivities');
#566=(
GEOMETRIC_REPRESENTATION_CONTEXT(3)
GLOBAL_UNCERTAINTY_ASSIGNED_CONTEXT((#564))
GLOBAL_UNIT_ASSIGNED_CONTEXT((#568,#570,#571))
REPRESENTATION_CONTEXT('','3D')
);
#567=(
GEOMETRIC_REPRESENTATION_CONTEXT(3)
GLOBAL_UNCERTAINTY_ASSIGNED_CONTEXT((#565))
GLOBAL_UNIT_ASSIGNED_CONTEXT((#568,#570,#571))
REPRESENTATION_CONTEXT('','3D')
);
#568=(
LENGTH_UNIT()
NAMED_UNIT(*)
SI_UNIT(.MILLI.,.METRE.)
);
#569=(
LENGTH_UNIT()
NAMED_UNIT(*)
SI_UNIT($,.METRE.)
);
#570=(
NAMED_UNIT(*)
PLANE_ANGLE_UNIT()
SI_UNIT($,.RADIAN.)
);
#571=(
NAMED_UNIT(*)
SI_UNIT($,.STERADIAN.)
SOLID_ANGLE_UNIT()
);
#572=SHAPE_DEFINITION_REPRESENTATION(#573,#574);
#573=PRODUCT_DEFINITION_SHAPE('',$,#576);
#574=SHAPE_REPRESENTATION('',(#348),#566);
#575=PRODUCT_DEFINITION_CONTEXT('part definition',#580,'design');
#576=PRODUCT_DEFINITION('ecrou moulinet 2f2','ecrou moulinet 2f2 v11',#577,
#575);
#577=PRODUCT_DEFINITION_FORMATION('',$,#582);
#578=PRODUCT_RELATED_PRODUCT_CATEGORY('ecrou moulinet 2f2 v11',
'ecrou moulinet 2f2 v11',(#582));
#579=APPLICATION_PROTOCOL_DEFINITION('international standard',
'automotive_design',2009,#580);
#580=APPLICATION_CONTEXT(
'Core Data for Automotive Mechanical Design Process');
#581=PRODUCT_CONTEXT('part definition',#580,'mechanical');
#582=PRODUCT('ecrou moulinet 2f2','ecrou moulinet 2f2 v11',$,(#581));
#583=PRESENTATION_STYLE_ASSIGNMENT((#584));
#584=SURFACE_STYLE_USAGE(.BOTH.,#585);
#585=SURFACE_SIDE_STYLE('',(#586));
#586=SURFACE_STYLE_FILL_AREA(#587);
#587=FILL_AREA_STYLE('Acier - Satin\X\E9',(#588));
#588=FILL_AREA_STYLE_COLOUR('Acier - Satin\X\E9',#589);
#589=COLOUR_RGB('Acier - Satin\X\E9',0.627450980392157,0.627450980392157,
0.627450980392157);
ENDSEC;
END-ISO-10303-21;
