ISO-10303-21;
HEADER;
FILE_DESCRIPTION (( 'STEP AP214' ),
    '1' );
FILE_NAME ('Entretoise 01.STEP',
    '2023-10-15T18:03:46',
    ( '' ),
    ( '' ),
    'SwSTEP 2.0',
    'SolidWorks 2021',
    '' );
FILE_SCHEMA (( 'AUTOMOTIVE_DESIGN' ));
ENDSEC;

DATA;
#1 = CARTESIAN_POINT ( 'NONE',  ( 4.500000000000003553, 0.000000000000000000, 0.000000000000000000 ) ) ;
#2 = EDGE_CURVE ( 'NONE', #95, #95, #48, .T. ) ;
#3 = AXIS2_PLACEMENT_3D ( 'NONE', #37, #104, #93 ) ;
#4 = EDGE_LOOP ( 'NONE', ( #61 ) ) ;
#5 = ORIENTED_EDGE ( 'NONE', *, *, #130, .F. ) ;
#6 = CARTESIAN_POINT ( 'NONE',  ( 0.000000000000000000, 0.000000000000000000, 0.000000000000000000 ) ) ;
#7 = APPLICATION_CONTEXT ( 'automotive_design' ) ;
#8 = CARTESIAN_POINT ( 'NONE',  ( 6.500000000000000888, 4.500000000000000888, 0.000000000000000000 ) ) ;
#9 = VERTEX_POINT ( 'NONE', #126 ) ;
#10 = CARTESIAN_POINT ( 'NONE',  ( 6.500000000000005329, 0.000000000000000000, 0.000000000000000000 ) ) ;
#11 = ADVANCED_BREP_SHAPE_REPRESENTATION ( 'Entretoise 01', ( #27, #79 ), #78 ) ;
#12 =( LENGTH_UNIT ( ) NAMED_UNIT ( * ) SI_UNIT ( .MILLI., .METRE. ) );
#13 = FILL_AREA_STYLE ('',( #172 ) ) ;
#14 = DIRECTION ( 'NONE',  ( -1.000000000000000000, -0.000000000000000000, -0.000000000000000000 ) ) ;
#15 = AXIS2_PLACEMENT_3D ( 'NONE', #51, #97, #149 ) ;
#16 =( NAMED_UNIT ( * ) SI_UNIT ( $, .STERADIAN. ) SOLID_ANGLE_UNIT ( ) );
#17 = PRODUCT ( 'Entretoise 01', 'Entretoise 01', '', ( #26 ) ) ;
#18 = UNCERTAINTY_MEASURE_WITH_UNIT (LENGTH_MEASURE( 1.000000000000000082E-05 ), #12, 'distance_accuracy_value', 'NONE');
#19 = AXIS2_PLACEMENT_3D ( 'NONE', #127, #29, #25 ) ;
#20 = STYLED_ITEM ( 'NONE', ( #71 ), #11 ) ;
#21 = CARTESIAN_POINT ( 'NONE',  ( 6.500000000000005329, 0.000000000000000000, 4.500000000000000888 ) ) ;
#22 = MECHANICAL_DESIGN_GEOMETRIC_PRESENTATION_REPRESENTATION (  '', ( #20 ), #169 ) ;
#23 = DIRECTION ( 'NONE',  ( -1.000000000000000000, -0.000000000000000000, -0.000000000000000000 ) ) ;
#24 = CARTESIAN_POINT ( 'NONE',  ( -88.98999999999999488, 0.000000000000000000, 0.000000000000000000 ) ) ;
#25 = DIRECTION ( 'NONE',  ( 0.000000000000000000, 0.000000000000000000, 1.000000000000000000 ) ) ;
#26 = PRODUCT_CONTEXT ( 'NONE', #7, 'mechanical' ) ;
#27 = MANIFOLD_SOLID_BREP ( 'Révolution1', #60 ) ;
#28 = DIRECTION ( 'NONE',  ( 0.000000000000000000, 0.000000000000000000, 1.000000000000000000 ) ) ;
#29 = DIRECTION ( 'NONE',  ( -1.000000000000000000, -0.000000000000000000, -0.000000000000000000 ) ) ;
#30 = ADVANCED_FACE ( 'NONE', ( #140, #170 ), #152, .F. ) ;
#31 = SURFACE_SIDE_STYLE ('',( #113 ) ) ;
#32 = FACE_OUTER_BOUND ( 'NONE', #106, .T. ) ;
#33 = COLOUR_RGB ( '',0.7921568627450980005, 0.8196078431372548767, 0.9333333333333333481 ) ;
#34 = AXIS2_PLACEMENT_3D ( 'NONE', #158, #14, #174 ) ;
#35 = PRODUCT_DEFINITION_CONTEXT ( 'detailed design', #91, 'design' ) ;
#36 = EDGE_LOOP ( 'NONE', ( #49 ) ) ;
#37 = CARTESIAN_POINT ( 'NONE',  ( 6.500000000000005329, 0.000000000000000000, 0.000000000000000000 ) ) ;
#38 = FACE_OUTER_BOUND ( 'NONE', #4, .T. ) ;
#39 = SURFACE_SIDE_STYLE ('',( #96 ) ) ;
#40 = DIRECTION ( 'NONE',  ( -1.000000000000000000, 0.000000000000000000, -0.000000000000000000 ) ) ;
#41 = FILL_AREA_STYLE ('',( #155 ) ) ;
#42 = EDGE_CURVE ( 'NONE', #94, #94, #133, .T. ) ;
#43 = DIRECTION ( 'NONE',  ( 0.000000000000000000, 0.000000000000000000, 1.000000000000000000 ) ) ;
#44 = FACE_OUTER_BOUND ( 'NONE', #164, .T. ) ;
#45 = DIRECTION ( 'NONE',  ( 0.000000000000000000, 0.000000000000000000, 1.000000000000000000 ) ) ;
#46 = EDGE_CURVE ( 'NONE', #77, #77, #56, .T. ) ;
#47 = APPLICATION_PROTOCOL_DEFINITION ( 'draft international standard', 'automotive_design', 1998, #91 ) ;
#48 = CIRCLE ( 'NONE', #3, 2.500000000000000000 ) ;
#49 = ORIENTED_EDGE ( 'NONE', *, *, #2, .T. ) ;
#50 = ORIENTED_EDGE ( 'NONE', *, *, #46, .T. ) ;
#51 = CARTESIAN_POINT ( 'NONE',  ( 0.000000000000000000, 2.500000000000000000, 0.000000000000000000 ) ) ;
#52 = DIRECTION ( 'NONE',  ( 0.000000000000000000, 0.000000000000000000, 1.000000000000000000 ) ) ;
#53 = DIRECTION ( 'NONE',  ( -0.000000000000000000, 0.000000000000000000, 1.000000000000000000 ) ) ;
#54 =( NAMED_UNIT ( * ) PLANE_ANGLE_UNIT ( ) SI_UNIT ( $, .RADIAN. ) );
#55 = ADVANCED_FACE ( 'NONE', ( #32, #98 ), #85, .F. ) ;
#56 = CIRCLE ( 'NONE', #99, 2.500000000000000000 ) ;
#57 = FACE_BOUND ( 'NONE', #166, .T. ) ;
#58 =( NAMED_UNIT ( * ) PLANE_ANGLE_UNIT ( ) SI_UNIT ( $, .RADIAN. ) );
#59 = DIRECTION ( 'NONE',  ( 1.000000000000000000, 0.000000000000000000, 0.000000000000000000 ) ) ;
#60 = CLOSED_SHELL ( 'NONE', ( #55, #90, #65, #138, #72, #30 ) ) ;
#61 = ORIENTED_EDGE ( 'NONE', *, *, #105, .F. ) ;
#62 = EDGE_CURVE ( 'NONE', #67, #67, #121, .T. ) ;
#63 = EDGE_LOOP ( 'NONE', ( #118 ) ) ;
#64 = AXIS2_PLACEMENT_3D ( 'NONE', #24, #128, #151 ) ;
#65 = ADVANCED_FACE ( 'NONE', ( #100, #44 ), #131, .T. ) ;
#66 = AXIS2_PLACEMENT_3D ( 'NONE', #1, #115, #45 ) ;
#67 = VERTEX_POINT ( 'NONE', #80 ) ;
#68 = CARTESIAN_POINT ( 'NONE',  ( 4.500000000000000888, 20.00000000000000000, 0.000000000000000000 ) ) ;
#69 =( NAMED_UNIT ( * ) SI_UNIT ( $, .STERADIAN. ) SOLID_ANGLE_UNIT ( ) );
#70 = AXIS2_PLACEMENT_3D ( 'NONE', #8, #142, #109 ) ;
#71 = PRESENTATION_STYLE_ASSIGNMENT (( #173 ) ) ;
#72 = ADVANCED_FACE ( 'NONE', ( #84, #144 ), #88, .T. ) ;
#73 = CARTESIAN_POINT ( 'NONE',  ( 0.000000000000000000, 0.000000000000000000, 0.000000000000000000 ) ) ;
#74 = PRODUCT_DEFINITION_SHAPE ( 'NONE', 'NONE',  #132 ) ;
#75 = EDGE_LOOP ( 'NONE', ( #145 ) ) ;
#76 = EDGE_LOOP ( 'NONE', ( #120 ) ) ;
#77 = VERTEX_POINT ( 'NONE', #137 ) ;
#78 =( GEOMETRIC_REPRESENTATION_CONTEXT ( 3 ) GLOBAL_UNCERTAINTY_ASSIGNED_CONTEXT ( ( #18 ) ) GLOBAL_UNIT_ASSIGNED_CONTEXT ( ( #12, #58, #16 ) ) REPRESENTATION_CONTEXT ( 'NONE', 'WORKASPACE' ) );
#79 = AXIS2_PLACEMENT_3D ( 'NONE', #102, #43, #59 ) ;
#80 = CARTESIAN_POINT ( 'NONE',  ( 4.500000000000003553, 0.000000000000000000, 4.500000000000000888 ) ) ;
#81 =( LENGTH_UNIT ( ) NAMED_UNIT ( * ) SI_UNIT ( .MILLI., .METRE. ) );
#82 = PRESENTATION_LAYER_ASSIGNMENT (  '', '', ( #20 ) ) ;
#83 = SHAPE_DEFINITION_REPRESENTATION ( #74, #11 ) ;
#84 = FACE_OUTER_BOUND ( 'NONE', #63, .T. ) ;
#85 = CYLINDRICAL_SURFACE ( 'NONE', #64, 2.500000000000000000 ) ;
#86 = COLOUR_RGB ( '',0.7921568627450980005, 0.8196078431372548767, 0.9333333333333333481 ) ;
#87 = DIRECTION ( 'NONE',  ( -1.000000000000000000, -0.000000000000000000, -0.000000000000000000 ) ) ;
#88 = CYLINDRICAL_SURFACE ( 'NONE', #34, 4.500000000000000888 ) ;
#89 = UNCERTAINTY_MEASURE_WITH_UNIT (LENGTH_MEASURE( 1.000000000000000082E-05 ), #114, 'distance_accuracy_value', 'NONE');
#90 = ADVANCED_FACE ( 'NONE', ( #57, #161 ), #124, .F. ) ;
#91 = APPLICATION_CONTEXT ( 'automotive_design' ) ;
#92 = EDGE_LOOP ( 'NONE', ( #50 ) ) ;
#93 = DIRECTION ( 'NONE',  ( 0.000000000000000000, 0.000000000000000000, 1.000000000000000000 ) ) ;
#94 = VERTEX_POINT ( 'NONE', #21 ) ;
#95 = VERTEX_POINT ( 'NONE', #146 ) ;
#96 = SURFACE_STYLE_FILL_AREA ( #41 ) ;
#97 = DIRECTION ( 'NONE',  ( 1.000000000000000000, 0.000000000000000000, 0.000000000000000000 ) ) ;
#98 = FACE_OUTER_BOUND ( 'NONE', #92, .T. ) ;
#99 = AXIS2_PLACEMENT_3D ( 'NONE', #73, #87, #28 ) ;
#100 = FACE_OUTER_BOUND ( 'NONE', #134, .T. ) ;
#101 = STYLED_ITEM ( 'NONE', ( #110 ), #27 ) ;
#102 = CARTESIAN_POINT ( 'NONE',  ( 0.000000000000000000, 0.000000000000000000, 0.000000000000000000 ) ) ;
#103 = ORIENTED_EDGE ( 'NONE', *, *, #105, .T. ) ;
#104 = DIRECTION ( 'NONE',  ( -1.000000000000000000, -0.000000000000000000, -0.000000000000000000 ) ) ;
#105 = EDGE_CURVE ( 'NONE', #139, #139, #111, .T. ) ;
#106 = EDGE_LOOP ( 'NONE', ( #119 ) ) ;
#107 = CIRCLE ( 'NONE', #143, 20.00000000000000000 ) ;
#108 = DIRECTION ( 'NONE',  ( 0.000000000000000000, 0.000000000000000000, 1.000000000000000000 ) ) ;
#109 = DIRECTION ( 'NONE',  ( -0.000000000000000000, 0.000000000000000000, 1.000000000000000000 ) ) ;
#110 = PRESENTATION_STYLE_ASSIGNMENT (( #148 ) ) ;
#111 = CIRCLE ( 'NONE', #159, 20.00000000000000000 ) ;
#112 = PRODUCT_DEFINITION_FORMATION_WITH_SPECIFIED_SOURCE ( 'ANY', '', #17, .NOT_KNOWN. ) ;
#113 = SURFACE_STYLE_FILL_AREA ( #13 ) ;
#114 =( LENGTH_UNIT ( ) NAMED_UNIT ( * ) SI_UNIT ( .MILLI., .METRE. ) );
#115 = DIRECTION ( 'NONE',  ( -1.000000000000000000, -0.000000000000000000, -0.000000000000000000 ) ) ;
#116 = PRODUCT_RELATED_PRODUCT_CATEGORY ( 'part', '', ( #17 ) ) ;
#117 = ORIENTED_EDGE ( 'NONE', *, *, #62, .T. ) ;
#118 = ORIENTED_EDGE ( 'NONE', *, *, #62, .F. ) ;
#119 = ORIENTED_EDGE ( 'NONE', *, *, #2, .F. ) ;
#120 = ORIENTED_EDGE ( 'NONE', *, *, #42, .T. ) ;
#121 = CIRCLE ( 'NONE', #66, 4.500000000000000888 ) ;
#122 = DIRECTION ( 'NONE',  ( -1.000000000000000000, -0.000000000000000000, -0.000000000000000000 ) ) ;
#123 = DIRECTION ( 'NONE',  ( -1.000000000000000000, -0.000000000000000000, -0.000000000000000000 ) ) ;
#124 = PLANE ( 'NONE',  #15 ) ;
#125 = AXIS2_PLACEMENT_3D ( 'NONE', #10, #122, #52 ) ;
#126 = CARTESIAN_POINT ( 'NONE',  ( 0.000000000000000000, 0.000000000000000000, 20.00000000000000000 ) ) ;
#127 = CARTESIAN_POINT ( 'NONE',  ( -88.98999999999999488, 0.000000000000000000, 0.000000000000000000 ) ) ;
#128 = DIRECTION ( 'NONE',  ( -1.000000000000000000, -0.000000000000000000, -0.000000000000000000 ) ) ;
#129 = APPLICATION_PROTOCOL_DEFINITION ( 'draft international standard', 'automotive_design', 1998, #7 ) ;
#130 = EDGE_CURVE ( 'NONE', #9, #9, #107, .T. ) ;
#131 = CYLINDRICAL_SURFACE ( 'NONE', #19, 20.00000000000000000 ) ;
#132 = PRODUCT_DEFINITION ( 'UNKNOWN', '', #112, #35 ) ;
#133 = CIRCLE ( 'NONE', #125, 4.500000000000000888 ) ;
#134 = EDGE_LOOP ( 'NONE', ( #5 ) ) ;
#135 = DIRECTION ( 'NONE',  ( 0.000000000000000000, 0.000000000000000000, 1.000000000000000000 ) ) ;
#136 =( GEOMETRIC_REPRESENTATION_CONTEXT ( 3 ) GLOBAL_UNCERTAINTY_ASSIGNED_CONTEXT ( ( #147 ) ) GLOBAL_UNIT_ASSIGNED_CONTEXT ( ( #81, #54, #69 ) ) REPRESENTATION_CONTEXT ( 'NONE', 'WORKASPACE' ) );
#137 = CARTESIAN_POINT ( 'NONE',  ( 0.000000000000000000, 0.000000000000000000, 2.500000000000000000 ) ) ;
#138 = ADVANCED_FACE ( 'NONE', ( #38, #156 ), #171, .F. ) ;
#139 = VERTEX_POINT ( 'NONE', #141 ) ;
#140 = FACE_OUTER_BOUND ( 'NONE', #154, .T. ) ;
#141 = CARTESIAN_POINT ( 'NONE',  ( 4.500000000000003553, 0.000000000000000000, 20.00000000000000000 ) ) ;
#142 = DIRECTION ( 'NONE',  ( -1.000000000000000000, 0.000000000000000000, -0.000000000000000000 ) ) ;
#143 = AXIS2_PLACEMENT_3D ( 'NONE', #6, #123, #108 ) ;
#144 = FACE_OUTER_BOUND ( 'NONE', #76, .T. ) ;
#145 = ORIENTED_EDGE ( 'NONE', *, *, #130, .T. ) ;
#146 = CARTESIAN_POINT ( 'NONE',  ( 6.500000000000005329, 0.000000000000000000, 2.500000000000000000 ) ) ;
#147 = UNCERTAINTY_MEASURE_WITH_UNIT (LENGTH_MEASURE( 1.000000000000000082E-05 ), #81, 'distance_accuracy_value', 'NONE');
#148 = SURFACE_STYLE_USAGE ( .BOTH. , #39 ) ;
#149 = DIRECTION ( 'NONE',  ( 0.000000000000000000, 0.000000000000000000, -1.000000000000000000 ) ) ;
#150 = AXIS2_PLACEMENT_3D ( 'NONE', #68, #40, #53 ) ;
#151 = DIRECTION ( 'NONE',  ( 0.000000000000000000, 0.000000000000000000, 1.000000000000000000 ) ) ;
#152 = PLANE ( 'NONE',  #70 ) ;
#153 = PRESENTATION_LAYER_ASSIGNMENT (  '', '', ( #101 ) ) ;
#154 = EDGE_LOOP ( 'NONE', ( #167 ) ) ;
#155 = FILL_AREA_STYLE_COLOUR ( '', #33 ) ;
#156 = FACE_BOUND ( 'NONE', #168, .T. ) ;
#157 = CARTESIAN_POINT ( 'NONE',  ( 4.500000000000003553, 0.000000000000000000, 0.000000000000000000 ) ) ;
#158 = CARTESIAN_POINT ( 'NONE',  ( -88.98999999999999488, 0.000000000000000000, 0.000000000000000000 ) ) ;
#159 = AXIS2_PLACEMENT_3D ( 'NONE', #157, #23, #135 ) ;
#160 =( NAMED_UNIT ( * ) PLANE_ANGLE_UNIT ( ) SI_UNIT ( $, .RADIAN. ) );
#161 = FACE_OUTER_BOUND ( 'NONE', #75, .T. ) ;
#162 =( NAMED_UNIT ( * ) SI_UNIT ( $, .STERADIAN. ) SOLID_ANGLE_UNIT ( ) );
#163 = MECHANICAL_DESIGN_GEOMETRIC_PRESENTATION_REPRESENTATION (  '', ( #101 ), #136 ) ;
#164 = EDGE_LOOP ( 'NONE', ( #103 ) ) ;
#165 = ORIENTED_EDGE ( 'NONE', *, *, #46, .F. ) ;
#166 = EDGE_LOOP ( 'NONE', ( #165 ) ) ;
#167 = ORIENTED_EDGE ( 'NONE', *, *, #42, .F. ) ;
#168 = EDGE_LOOP ( 'NONE', ( #117 ) ) ;
#169 =( GEOMETRIC_REPRESENTATION_CONTEXT ( 3 ) GLOBAL_UNCERTAINTY_ASSIGNED_CONTEXT ( ( #89 ) ) GLOBAL_UNIT_ASSIGNED_CONTEXT ( ( #114, #160, #162 ) ) REPRESENTATION_CONTEXT ( 'NONE', 'WORKASPACE' ) );
#170 = FACE_BOUND ( 'NONE', #36, .T. ) ;
#171 = PLANE ( 'NONE',  #150 ) ;
#172 = FILL_AREA_STYLE_COLOUR ( '', #86 ) ;
#173 = SURFACE_STYLE_USAGE ( .BOTH. , #31 ) ;
#174 = DIRECTION ( 'NONE',  ( 0.000000000000000000, 0.000000000000000000, 1.000000000000000000 ) ) ;
ENDSEC;
END-ISO-10303-21;
