ISO-10303-21;
HEADER;
FILE_DESCRIPTION (( 'STEP AP214' ),
    '1' );
FILE_NAME ('Roulettes inox Quantité 2.STEP',
    '2023-10-15T18:06:58',
    ( '' ),
    ( '' ),
    'SwSTEP 2.0',
    'SolidWorks 2021',
    '' );
FILE_SCHEMA (( 'AUTOMOTIVE_DESIGN' ));
ENDSEC;

DATA;
#1 = VERTEX_POINT ( 'NONE', #95 ) ;
#2 = CIRCLE ( 'NONE', #23, 60.00000000000000000 ) ;
#3 = ORIENTED_EDGE ( 'NONE', *, *, #28, .F. ) ;
#4 = APPLICATION_CONTEXT ( 'automotive_design' ) ;
#5 = DIRECTION ( 'NONE',  ( 0.000000000000000000, 0.000000000000000000, 1.000000000000000000 ) ) ;
#6 = DIRECTION ( 'NONE',  ( 0.000000000000000000, 0.000000000000000000, 1.000000000000000000 ) ) ;
#7 = ORIENTED_EDGE ( 'NONE', *, *, #80, .T. ) ;
#8 = FACE_OUTER_BOUND ( 'NONE', #260, .T. ) ;
#9 = CYLINDRICAL_SURFACE ( 'NONE', #267, 60.00000000000000000 ) ;
#10 = CARTESIAN_POINT ( 'NONE',  ( 0.000000000000000000, 60.00000000000000000, 0.000000000000000000 ) ) ;
#11 = FACE_OUTER_BOUND ( 'NONE', #181, .T. ) ;
#12 = AXIS2_PLACEMENT_3D ( 'NONE', #152, #170, #99 ) ;
#13 = FILL_AREA_STYLE_COLOUR ( '', #242 ) ;
#14 = STYLED_ITEM ( 'NONE', ( #211 ), #15 ) ;
#15 = ADVANCED_BREP_SHAPE_REPRESENTATION ( 'Roulettes inox QuantitÚ 2', ( #129, #229 ), #72 ) ;
#16 = DIRECTION ( 'NONE',  ( -1.000000000000000000, -0.000000000000000000, -0.000000000000000000 ) ) ;
#17 = ORIENTED_EDGE ( 'NONE', *, *, #135, .F. ) ;
#18 = EDGE_LOOP ( 'NONE', ( #279 ) ) ;
#19 = VERTEX_POINT ( 'NONE', #20 ) ;
#20 = CARTESIAN_POINT ( 'NONE',  ( 12.99999999999999822, 0.000000000000000000, 21.00000000000000000 ) ) ;
#21 = EDGE_LOOP ( 'NONE', ( #7 ) ) ;
#22 = EDGE_CURVE ( 'NONE', #233, #233, #250, .T. ) ;
#23 = AXIS2_PLACEMENT_3D ( 'NONE', #259, #190, #262 ) ;
#24 = EDGE_LOOP ( 'NONE', ( #202 ) ) ;
#25 = EDGE_LOOP ( 'NONE', ( #254 ) ) ;
#26 = CARTESIAN_POINT ( 'NONE',  ( -88.98999999999999488, 0.000000000000000000, 0.000000000000000000 ) ) ;
#27 = CIRCLE ( 'NONE', #183, 60.00000000000000000 ) ;
#28 = EDGE_CURVE ( 'NONE', #141, #141, #37, .T. ) ;
#29 =( LENGTH_UNIT ( ) NAMED_UNIT ( * ) SI_UNIT ( .MILLI., .METRE. ) );
#30 = CLOSED_SHELL ( 'NONE', ( #263, #239, #66, #52, #58, #150, #46, #270, #156, #108, #132, #91 ) ) ;
#31 = EDGE_LOOP ( 'NONE', ( #121 ) ) ;
#32 = ORIENTED_EDGE ( 'NONE', *, *, #252, .F. ) ;
#33 = FACE_OUTER_BOUND ( 'NONE', #21, .T. ) ;
#34 = DIRECTION ( 'NONE',  ( 0.000000000000000000, 0.000000000000000000, 1.000000000000000000 ) ) ;
#35 = CARTESIAN_POINT ( 'NONE',  ( 1.500000000000001332, 0.000000000000000000, 0.000000000000000000 ) ) ;
#36 = CARTESIAN_POINT ( 'NONE',  ( -88.98999999999999488, 0.000000000000000000, 0.000000000000000000 ) ) ;
#37 = CIRCLE ( 'NONE', #97, 21.00000000000000000 ) ;
#38 = FACE_OUTER_BOUND ( 'NONE', #292, .T. ) ;
#39 = CARTESIAN_POINT ( 'NONE',  ( -88.98999999999999488, 0.000000000000000000, 0.000000000000000000 ) ) ;
#40 = EDGE_CURVE ( 'NONE', #136, #136, #70, .T. ) ;
#41 = APPLICATION_PROTOCOL_DEFINITION ( 'draft international standard', 'automotive_design', 1998, #84 ) ;
#42 = AXIS2_PLACEMENT_3D ( 'NONE', #164, #71, #144 ) ;
#43 = CARTESIAN_POINT ( 'NONE',  ( 17.00000000000000000, 0.000000000000000000, 19.00000000000000000 ) ) ;
#44 = EDGE_LOOP ( 'NONE', ( #69 ) ) ;
#45 = AXIS2_PLACEMENT_3D ( 'NONE', #163, #273, #116 ) ;
#46 = ADVANCED_FACE ( 'NONE', ( #50, #8 ), #74, .T. ) ;
#47 = CARTESIAN_POINT ( 'NONE',  ( 30.00000000000000000, 0.000000000000000000, 22.00000000000000000 ) ) ;
#48 = EDGE_LOOP ( 'NONE', ( #49 ) ) ;
#49 = ORIENTED_EDGE ( 'NONE', *, *, #165, .F. ) ;
#50 = FACE_OUTER_BOUND ( 'NONE', #31, .T. ) ;
#51 = DIRECTION ( 'NONE',  ( 0.000000000000000000, 0.000000000000000000, 1.000000000000000000 ) ) ;
#52 = ADVANCED_FACE ( 'NONE', ( #282, #264 ), #79, .F. ) ;
#53 = SURFACE_STYLE_USAGE ( .BOTH. , #261 ) ;
#54 = CARTESIAN_POINT ( 'NONE',  ( 12.99999999999999822, 0.000000000000000000, 0.000000000000000000 ) ) ;
#55 = AXIS2_PLACEMENT_3D ( 'NONE', #173, #113, #131 ) ;
#56 = AXIS2_PLACEMENT_3D ( 'NONE', #128, #104, #5 ) ;
#57 = EDGE_LOOP ( 'NONE', ( #3 ) ) ;
#58 = ADVANCED_FACE ( 'NONE', ( #192, #283 ), #275, .F. ) ;
#59 = DIRECTION ( 'NONE',  ( -1.000000000000000000, -0.000000000000000000, -0.000000000000000000 ) ) ;
#60 = DIRECTION ( 'NONE',  ( 0.000000000000000000, 0.000000000000000000, 1.000000000000000000 ) ) ;
#61 = FILL_AREA_STYLE ('',( #13 ) ) ;
#62 = SURFACE_SIDE_STYLE ('',( #286 ) ) ;
#63 = UNCERTAINTY_MEASURE_WITH_UNIT (LENGTH_MEASURE( 1.000000000000000082E-05 ), #29, 'distance_accuracy_value', 'NONE');
#64 =( NAMED_UNIT ( * ) SI_UNIT ( $, .STERADIAN. ) SOLID_ANGLE_UNIT ( ) );
#65 = CARTESIAN_POINT ( 'NONE',  ( 12.99999999999999822, 0.000000000000000000, 19.00000000000000000 ) ) ;
#66 = ADVANCED_FACE ( 'NONE', ( #100, #278 ), #122, .F. ) ;
#67 = VERTEX_POINT ( 'NONE', #236 ) ;
#68 = CONICAL_SURFACE ( 'NONE', #162, 22.00000000000000000, 0.7853981633974466137 ) ;
#69 = ORIENTED_EDGE ( 'NONE', *, *, #207, .F. ) ;
#70 = CIRCLE ( 'NONE', #226, 19.00000000000000000 ) ;
#71 = DIRECTION ( 'NONE',  ( -1.000000000000000000, -0.000000000000000000, -0.000000000000000000 ) ) ;
#72 =( GEOMETRIC_REPRESENTATION_CONTEXT ( 3 ) GLOBAL_UNCERTAINTY_ASSIGNED_CONTEXT ( ( #287 ) ) GLOBAL_UNIT_ASSIGNED_CONTEXT ( ( #117, #178, #64 ) ) REPRESENTATION_CONTEXT ( 'NONE', 'WORKASPACE' ) );
#73 = SHAPE_DEFINITION_REPRESENTATION ( #223, #15 ) ;
#74 = CYLINDRICAL_SURFACE ( 'NONE', #112, 60.00000000000000000 ) ;
#75 = PRODUCT_DEFINITION ( 'UNKNOWN', '', #127, #179 ) ;
#76 = ORIENTED_EDGE ( 'NONE', *, *, #28, .T. ) ;
#77 = EDGE_CURVE ( 'NONE', #200, #200, #2, .T. ) ;
#78 = ORIENTED_EDGE ( 'NONE', *, *, #22, .T. ) ;
#79 = CYLINDRICAL_SURFACE ( 'NONE', #12, 21.00000000000000000 ) ;
#80 = EDGE_CURVE ( 'NONE', #208, #208, #209, .T. ) ;
#81 = AXIS2_PLACEMENT_3D ( 'NONE', #285, #247, #85 ) ;
#82 = DIRECTION ( 'NONE',  ( 1.000000000000000000, 0.000000000000000000, 0.000000000000000000 ) ) ;
#83 = DIRECTION ( 'NONE',  ( -1.000000000000000000, -0.000000000000000000, -0.000000000000000000 ) ) ;
#84 = APPLICATION_CONTEXT ( 'automotive_design' ) ;
#85 = DIRECTION ( 'NONE',  ( 0.000000000000000000, 0.000000000000000000, 1.000000000000000000 ) ) ;
#86 = AXIS2_PLACEMENT_3D ( 'NONE', #39, #228, #253 ) ;
#87 = FACE_OUTER_BOUND ( 'NONE', #48, .T. ) ;
#88 = FACE_OUTER_BOUND ( 'NONE', #115, .T. ) ;
#89 = MECHANICAL_DESIGN_GEOMETRIC_PRESENTATION_REPRESENTATION (  '', ( #14 ), #138 ) ;
#90 =( NAMED_UNIT ( * ) SI_UNIT ( $, .STERADIAN. ) SOLID_ANGLE_UNIT ( ) );
#91 = ADVANCED_FACE ( 'NONE', ( #248, #221 ), #289, .F. ) ;
#92 = VERTEX_POINT ( 'NONE', #255 ) ;
#93 = ORIENTED_EDGE ( 'NONE', *, *, #22, .F. ) ;
#94 = VERTEX_POINT ( 'NONE', #276 ) ;
#95 = CARTESIAN_POINT ( 'NONE',  ( 17.00000000000000000, 0.000000000000000000, 21.00000000000000000 ) ) ;
#96 = CIRCLE ( 'NONE', #232, 22.00000000000000000 ) ;
#97 = AXIS2_PLACEMENT_3D ( 'NONE', #105, #218, #51 ) ;
#98 = DIRECTION ( 'NONE',  ( 1.000000000000000000, 0.000000000000000000, 0.000000000000000000 ) ) ;
#99 = DIRECTION ( 'NONE',  ( 0.000000000000000000, 0.000000000000000000, 1.000000000000000000 ) ) ;
#100 = FACE_OUTER_BOUND ( 'NONE', #137, .T. ) ;
#101 = CIRCLE ( 'NONE', #140, 21.00000000000000000 ) ;
#102 = DIRECTION ( 'NONE',  ( -0.000000000000000000, 0.000000000000000000, 1.000000000000000000 ) ) ;
#103 =( NAMED_UNIT ( * ) PLANE_ANGLE_UNIT ( ) SI_UNIT ( $, .RADIAN. ) );
#104 = DIRECTION ( 'NONE',  ( -1.000000000000000000, -0.000000000000000000, -0.000000000000000000 ) ) ;
#105 = CARTESIAN_POINT ( 'NONE',  ( 1.000000000000000888, 0.000000000000000000, 0.000000000000000000 ) ) ;
#106 = CARTESIAN_POINT ( 'NONE',  ( 28.99999999999999645, 0.000000000000000000, 0.000000000000000000 ) ) ;
#107 = CYLINDRICAL_SURFACE ( 'NONE', #86, 19.00000000000000000 ) ;
#108 = ADVANCED_FACE ( 'NONE', ( #175, #88 ), #111, .F. ) ;
#109 = DIRECTION ( 'NONE',  ( -1.000000000000000000, -0.000000000000000000, -0.000000000000000000 ) ) ;
#110 =( GEOMETRIC_REPRESENTATION_CONTEXT ( 3 ) GLOBAL_UNCERTAINTY_ASSIGNED_CONTEXT ( ( #271 ) ) GLOBAL_UNIT_ASSIGNED_CONTEXT ( ( #157, #227, #90 ) ) REPRESENTATION_CONTEXT ( 'NONE', 'WORKASPACE' ) );
#111 = PLANE ( 'NONE',  #171 ) ;
#112 = AXIS2_PLACEMENT_3D ( 'NONE', #26, #167, #6 ) ;
#113 = DIRECTION ( 'NONE',  ( -1.000000000000000000, 0.000000000000000000, -0.000000000000000000 ) ) ;
#114 = DIRECTION ( 'NONE',  ( 0.000000000000000000, 0.000000000000000000, 1.000000000000000000 ) ) ;
#115 = EDGE_LOOP ( 'NONE', ( #234 ) ) ;
#116 = DIRECTION ( 'NONE',  ( 0.000000000000000000, 0.000000000000000000, 1.000000000000000000 ) ) ;
#117 =( LENGTH_UNIT ( ) NAMED_UNIT ( * ) SI_UNIT ( .MILLI., .METRE. ) );
#118 = CARTESIAN_POINT ( 'NONE',  ( 12.99999999999999822, 0.000000000000000000, 0.000000000000000000 ) ) ;
#119 = DIRECTION ( 'NONE',  ( 0.000000000000000000, 0.000000000000000000, -1.000000000000000000 ) ) ;
#120 = ORIENTED_EDGE ( 'NONE', *, *, #294, .F. ) ;
#121 = ORIENTED_EDGE ( 'NONE', *, *, #243, .F. ) ;
#122 = PLANE ( 'NONE',  #159 ) ;
#123 = CIRCLE ( 'NONE', #288, 21.00000000000000000 ) ;
#124 = SURFACE_STYLE_FILL_AREA ( #168 ) ;
#125 = DIRECTION ( 'NONE',  ( 0.000000000000000000, 0.000000000000000000, 1.000000000000000000 ) ) ;
#126 = CARTESIAN_POINT ( 'NONE',  ( 0.000000000000000000, 0.000000000000000000, 0.000000000000000000 ) ) ;
#127 = PRODUCT_DEFINITION_FORMATION_WITH_SPECIFIED_SOURCE ( 'ANY', '', #201, .NOT_KNOWN. ) ;
#128 = CARTESIAN_POINT ( 'NONE',  ( 0.000000000000000000, 0.000000000000000000, 0.000000000000000000 ) ) ;
#129 = MANIFOLD_SOLID_BREP ( 'Révolution1', #30 ) ;
#130 = CARTESIAN_POINT ( 'NONE',  ( 0.000000000000000000, 0.000000000000000000, 0.000000000000000000 ) ) ;
#131 = DIRECTION ( 'NONE',  ( -0.000000000000000000, 0.000000000000000000, 1.000000000000000000 ) ) ;
#132 = ADVANCED_FACE ( 'NONE', ( #154, #266 ), #68, .F. ) ;
#133 = CARTESIAN_POINT ( 'NONE',  ( 30.00000000000000000, 0.000000000000000000, 0.000000000000000000 ) ) ;
#134 = DIRECTION ( 'NONE',  ( 0.000000000000000000, 0.000000000000000000, 1.000000000000000000 ) ) ;
#135 = EDGE_CURVE ( 'NONE', #67, #67, #27, .T. ) ;
#136 = VERTEX_POINT ( 'NONE', #43 ) ;
#137 = EDGE_LOOP ( 'NONE', ( #120 ) ) ;
#138 =( GEOMETRIC_REPRESENTATION_CONTEXT ( 3 ) GLOBAL_UNCERTAINTY_ASSIGNED_CONTEXT ( ( #63 ) ) GLOBAL_UNIT_ASSIGNED_CONTEXT ( ( #29, #103, #281 ) ) REPRESENTATION_CONTEXT ( 'NONE', 'WORKASPACE' ) );
#139 = CARTESIAN_POINT ( 'NONE',  ( 13.00000000000000178, 21.00000000000000000, 0.000000000000000000 ) ) ;
#140 = AXIS2_PLACEMENT_3D ( 'NONE', #106, #109, #60 ) ;
#141 = VERTEX_POINT ( 'NONE', #231 ) ;
#142 = EDGE_LOOP ( 'NONE', ( #145 ) ) ;
#143 = PRODUCT_RELATED_PRODUCT_CATEGORY ( 'part', '', ( #201 ) ) ;
#144 = DIRECTION ( 'NONE',  ( 0.000000000000000000, 0.000000000000000000, 1.000000000000000000 ) ) ;
#145 = ORIENTED_EDGE ( 'NONE', *, *, #135, .T. ) ;
#146 = COLOUR_RGB ( '',0.7921568627450980005, 0.8196078431372548767, 0.9333333333333333481 ) ;
#147 = CARTESIAN_POINT ( 'NONE',  ( 30.00000000000000000, 0.000000000000000000, 60.00000000000000000 ) ) ;
#148 = EDGE_LOOP ( 'NONE', ( #78 ) ) ;
#149 = EDGE_LOOP ( 'NONE', ( #93 ) ) ;
#150 = ADVANCED_FACE ( 'NONE', ( #11, #197 ), #195, .F. ) ;
#151 = EDGE_LOOP ( 'NONE', ( #188 ) ) ;
#152 = CARTESIAN_POINT ( 'NONE',  ( -88.98999999999999488, 0.000000000000000000, 0.000000000000000000 ) ) ;
#153 = ORIENTED_EDGE ( 'NONE', *, *, #40, .T. ) ;
#154 = FACE_BOUND ( 'NONE', #57, .T. ) ;
#155 = FACE_OUTER_BOUND ( 'NONE', #214, .T. ) ;
#156 = ADVANCED_FACE ( 'NONE', ( #87, #176 ), #9, .T. ) ;
#157 =( LENGTH_UNIT ( ) NAMED_UNIT ( * ) SI_UNIT ( .MILLI., .METRE. ) );
#158 = DIRECTION ( 'NONE',  ( -1.000000000000000000, -0.000000000000000000, -0.000000000000000000 ) ) ;
#159 = AXIS2_PLACEMENT_3D ( 'NONE', #169, #280, #102 ) ;
#160 = DIRECTION ( 'NONE',  ( 1.000000000000000000, 0.000000000000000000, 0.000000000000000000 ) ) ;
#161 = ORIENTED_EDGE ( 'NONE', *, *, #77, .F. ) ;
#162 = AXIS2_PLACEMENT_3D ( 'NONE', #130, #59, #34 ) ;
#163 = CARTESIAN_POINT ( 'NONE',  ( 17.00000000000000000, 0.000000000000000000, 0.000000000000000000 ) ) ;
#164 = CARTESIAN_POINT ( 'NONE',  ( 28.49999999999999645, 0.000000000000000000, 0.000000000000000000 ) ) ;
#165 = EDGE_CURVE ( 'NONE', #291, #291, #225, .T. ) ;
#166 = CARTESIAN_POINT ( 'NONE',  ( 17.00000000000000000, 0.000000000000000000, 0.000000000000000000 ) ) ;
#167 = DIRECTION ( 'NONE',  ( -1.000000000000000000, -0.000000000000000000, -0.000000000000000000 ) ) ;
#168 = FILL_AREA_STYLE ('',( #258 ) ) ;
#169 = CARTESIAN_POINT ( 'NONE',  ( 17.00000000000000000, 19.00000000000000000, 0.000000000000000000 ) ) ;
#170 = DIRECTION ( 'NONE',  ( -1.000000000000000000, -0.000000000000000000, -0.000000000000000000 ) ) ;
#171 = AXIS2_PLACEMENT_3D ( 'NONE', #10, #269, #246 ) ;
#172 = DIRECTION ( 'NONE',  ( 0.000000000000000000, 0.000000000000000000, -1.000000000000000000 ) ) ;
#173 = CARTESIAN_POINT ( 'NONE',  ( 30.00000000000000000, 22.00000000000000000, 0.000000000000000000 ) ) ;
#174 = CIRCLE ( 'NONE', #42, 60.00000000000000000 ) ;
#175 = FACE_BOUND ( 'NONE', #149, .T. ) ;
#176 = FACE_OUTER_BOUND ( 'NONE', #142, .T. ) ;
#177 = AXIS2_PLACEMENT_3D ( 'NONE', #139, #160, #119 ) ;
#178 =( NAMED_UNIT ( * ) PLANE_ANGLE_UNIT ( ) SI_UNIT ( $, .RADIAN. ) );
#179 = PRODUCT_DEFINITION_CONTEXT ( 'detailed design', #4, 'design' ) ;
#180 = CARTESIAN_POINT ( 'NONE',  ( 15.00000000000000178, 0.000000000000000000, 0.000000000000000000 ) ) ;
#181 = EDGE_LOOP ( 'NONE', ( #161 ) ) ;
#182 = DIRECTION ( 'NONE',  ( 0.000000000000000000, 0.000000000000000000, 1.000000000000000000 ) ) ;
#183 = AXIS2_PLACEMENT_3D ( 'NONE', #35, #224, #265 ) ;
#184 = FACE_OUTER_BOUND ( 'NONE', #230, .T. ) ;
#185 = STYLED_ITEM ( 'NONE', ( #268 ), #129 ) ;
#186 = PRODUCT_CONTEXT ( 'NONE', #84, 'mechanical' ) ;
#187 = AXIS2_PLACEMENT_3D ( 'NONE', #180, #16, #114 ) ;
#188 = ORIENTED_EDGE ( 'NONE', *, *, #219, .F. ) ;
#189 = ORIENTED_EDGE ( 'NONE', *, *, #243, .T. ) ;
#190 = DIRECTION ( 'NONE',  ( -1.000000000000000000, -0.000000000000000000, -0.000000000000000000 ) ) ;
#191 = DIRECTION ( 'NONE',  ( -1.000000000000000000, -0.000000000000000000, -0.000000000000000000 ) ) ;
#192 = FACE_OUTER_BOUND ( 'NONE', #44, .T. ) ;
#193 = PRESENTATION_LAYER_ASSIGNMENT (  '', '', ( #185 ) ) ;
#194 = SURFACE_STYLE_USAGE ( .BOTH. , #62 ) ;
#195 = PLANE ( 'NONE',  #55 ) ;
#196 = AXIS2_PLACEMENT_3D ( 'NONE', #54, #83, #134 ) ;
#197 = FACE_BOUND ( 'NONE', #18, .T. ) ;
#198 = DIRECTION ( 'NONE',  ( 0.000000000000000000, 0.000000000000000000, 1.000000000000000000 ) ) ;
#199 = TOROIDAL_SURFACE ( 'NONE', #187, 60.00000000000000000, 13.50000000000000178 ) ;
#200 = VERTEX_POINT ( 'NONE', #147 ) ;
#201 = PRODUCT ( 'Roulettes inox Quantité 2', 'Roulettes inox Quantité 2', '', ( #186 ) ) ;
#202 = ORIENTED_EDGE ( 'NONE', *, *, #80, .F. ) ;
#203 = FACE_OUTER_BOUND ( 'NONE', #215, .T. ) ;
#204 = DIRECTION ( 'NONE',  ( -1.000000000000000000, -0.000000000000000000, -0.000000000000000000 ) ) ;
#205 = EDGE_LOOP ( 'NONE', ( #76 ) ) ;
#206 = VERTEX_POINT ( 'NONE', #47 ) ;
#207 = EDGE_CURVE ( 'NONE', #206, #206, #96, .T. ) ;
#208 = VERTEX_POINT ( 'NONE', #65 ) ;
#209 = CIRCLE ( 'NONE', #196, 19.00000000000000000 ) ;
#210 = EDGE_LOOP ( 'NONE', ( #32 ) ) ;
#211 = PRESENTATION_STYLE_ASSIGNMENT (( #53 ) ) ;
#212 = EDGE_LOOP ( 'NONE', ( #238 ) ) ;
#213 = AXIS2_PLACEMENT_3D ( 'NONE', #249, #290, #245 ) ;
#214 = EDGE_LOOP ( 'NONE', ( #244 ) ) ;
#215 = EDGE_LOOP ( 'NONE', ( #189 ) ) ;
#216 = PRESENTATION_LAYER_ASSIGNMENT (  '', '', ( #14 ) ) ;
#217 = DIRECTION ( 'NONE',  ( 0.000000000000000000, 0.000000000000000000, 1.000000000000000000 ) ) ;
#218 = DIRECTION ( 'NONE',  ( -1.000000000000000000, -0.000000000000000000, -0.000000000000000000 ) ) ;
#219 = EDGE_CURVE ( 'NONE', #92, #92, #101, .T. ) ;
#220 = DIRECTION ( 'NONE',  ( 0.000000000000000000, 0.000000000000000000, 1.000000000000000000 ) ) ;
#221 = FACE_OUTER_BOUND ( 'NONE', #205, .T. ) ;
#222 = DIRECTION ( 'NONE',  ( -1.000000000000000000, -0.000000000000000000, -0.000000000000000000 ) ) ;
#223 = PRODUCT_DEFINITION_SHAPE ( 'NONE', 'NONE',  #75 ) ;
#224 = DIRECTION ( 'NONE',  ( -1.000000000000000000, -0.000000000000000000, -0.000000000000000000 ) ) ;
#225 = CIRCLE ( 'NONE', #213, 60.00000000000000000 ) ;
#226 = AXIS2_PLACEMENT_3D ( 'NONE', #166, #191, #125 ) ;
#227 =( NAMED_UNIT ( * ) PLANE_ANGLE_UNIT ( ) SI_UNIT ( $, .RADIAN. ) );
#228 = DIRECTION ( 'NONE',  ( -1.000000000000000000, -0.000000000000000000, -0.000000000000000000 ) ) ;
#229 = AXIS2_PLACEMENT_3D ( 'NONE', #126, #217, #98 ) ;
#230 = EDGE_LOOP ( 'NONE', ( #256 ) ) ;
#231 = CARTESIAN_POINT ( 'NONE',  ( 1.000000000000000888, 0.000000000000000000, 21.00000000000000000 ) ) ;
#232 = AXIS2_PLACEMENT_3D ( 'NONE', #133, #222, #220 ) ;
#233 = VERTEX_POINT ( 'NONE', #272 ) ;
#234 = ORIENTED_EDGE ( 'NONE', *, *, #165, .T. ) ;
#235 = FACE_BOUND ( 'NONE', #24, .T. ) ;
#236 = CARTESIAN_POINT ( 'NONE',  ( 1.500000000000001332, 0.000000000000000000, 60.00000000000000000 ) ) ;
#237 = ORIENTED_EDGE ( 'NONE', *, *, #77, .T. ) ;
#238 = ORIENTED_EDGE ( 'NONE', *, *, #294, .T. ) ;
#239 = ADVANCED_FACE ( 'NONE', ( #155, #33 ), #107, .F. ) ;
#240 = CARTESIAN_POINT ( 'NONE',  ( 28.99999999999999645, 0.000000000000000000, 0.000000000000000000 ) ) ;
#241 = EDGE_LOOP ( 'NONE', ( #153 ) ) ;
#242 = COLOUR_RGB ( '',0.7921568627450980005, 0.8196078431372548767, 0.9333333333333333481 ) ;
#243 = EDGE_CURVE ( 'NONE', #94, #94, #174, .T. ) ;
#244 = ORIENTED_EDGE ( 'NONE', *, *, #40, .F. ) ;
#245 = DIRECTION ( 'NONE',  ( 0.000000000000000000, 0.000000000000000000, 1.000000000000000000 ) ) ;
#246 = DIRECTION ( 'NONE',  ( 0.000000000000000000, 0.000000000000000000, -1.000000000000000000 ) ) ;
#247 = DIRECTION ( 'NONE',  ( -1.000000000000000000, -0.000000000000000000, -0.000000000000000000 ) ) ;
#248 = FACE_OUTER_BOUND ( 'NONE', #210, .T. ) ;
#249 = CARTESIAN_POINT ( 'NONE',  ( 0.000000000000000000, 0.000000000000000000, 0.000000000000000000 ) ) ;
#250 = CIRCLE ( 'NONE', #56, 22.00000000000000000 ) ;
#251 = PLANE ( 'NONE',  #177 ) ;
#252 = EDGE_CURVE ( 'NONE', #19, #19, #123, .T. ) ;
#253 = DIRECTION ( 'NONE',  ( 0.000000000000000000, 0.000000000000000000, 1.000000000000000000 ) ) ;
#254 = ORIENTED_EDGE ( 'NONE', *, *, #219, .T. ) ;
#255 = CARTESIAN_POINT ( 'NONE',  ( 28.99999999999999645, 0.000000000000000000, 21.00000000000000000 ) ) ;
#256 = ORIENTED_EDGE ( 'NONE', *, *, #252, .T. ) ;
#257 = CIRCLE ( 'NONE', #45, 21.00000000000000000 ) ;
#258 = FILL_AREA_STYLE_COLOUR ( '', #146 ) ;
#259 = CARTESIAN_POINT ( 'NONE',  ( 30.00000000000000000, 0.000000000000000000, 0.000000000000000000 ) ) ;
#260 = EDGE_LOOP ( 'NONE', ( #237 ) ) ;
#261 = SURFACE_SIDE_STYLE ('',( #124 ) ) ;
#262 = DIRECTION ( 'NONE',  ( 0.000000000000000000, 0.000000000000000000, 1.000000000000000000 ) ) ;
#263 = ADVANCED_FACE ( 'NONE', ( #235, #184 ), #251, .F. ) ;
#264 = FACE_OUTER_BOUND ( 'NONE', #212, .T. ) ;
#265 = DIRECTION ( 'NONE',  ( 0.000000000000000000, 0.000000000000000000, 1.000000000000000000 ) ) ;
#266 = FACE_OUTER_BOUND ( 'NONE', #148, .T. ) ;
#267 = AXIS2_PLACEMENT_3D ( 'NONE', #36, #158, #198 ) ;
#268 = PRESENTATION_STYLE_ASSIGNMENT (( #194 ) ) ;
#269 = DIRECTION ( 'NONE',  ( 1.000000000000000000, 0.000000000000000000, 0.000000000000000000 ) ) ;
#270 = ADVANCED_FACE ( 'NONE', ( #38, #203 ), #199, .F. ) ;
#271 = UNCERTAINTY_MEASURE_WITH_UNIT (LENGTH_MEASURE( 1.000000000000000082E-05 ), #157, 'distance_accuracy_value', 'NONE');
#272 = CARTESIAN_POINT ( 'NONE',  ( 0.000000000000000000, 0.000000000000000000, 22.00000000000000000 ) ) ;
#273 = DIRECTION ( 'NONE',  ( -1.000000000000000000, -0.000000000000000000, -0.000000000000000000 ) ) ;
#274 = MECHANICAL_DESIGN_GEOMETRIC_PRESENTATION_REPRESENTATION (  '', ( #185 ), #110 ) ;
#275 = CONICAL_SURFACE ( 'NONE', #284, 21.00000000000000000, 0.7853981633974466137 ) ;
#276 = CARTESIAN_POINT ( 'NONE',  ( 28.49999999999999645, 0.000000000000000000, 60.00000000000000000 ) ) ;
#277 = APPLICATION_PROTOCOL_DEFINITION ( 'draft international standard', 'automotive_design', 1998, #4 ) ;
#278 = FACE_BOUND ( 'NONE', #241, .T. ) ;
#279 = ORIENTED_EDGE ( 'NONE', *, *, #207, .T. ) ;
#280 = DIRECTION ( 'NONE',  ( -1.000000000000000000, 0.000000000000000000, -0.000000000000000000 ) ) ;
#281 =( NAMED_UNIT ( * ) SI_UNIT ( $, .STERADIAN. ) SOLID_ANGLE_UNIT ( ) );
#282 = FACE_OUTER_BOUND ( 'NONE', #151, .T. ) ;
#283 = FACE_BOUND ( 'NONE', #25, .T. ) ;
#284 = AXIS2_PLACEMENT_3D ( 'NONE', #240, #82, #172 ) ;
#285 = CARTESIAN_POINT ( 'NONE',  ( -88.98999999999999488, 0.000000000000000000, 0.000000000000000000 ) ) ;
#286 = SURFACE_STYLE_FILL_AREA ( #61 ) ;
#287 = UNCERTAINTY_MEASURE_WITH_UNIT (LENGTH_MEASURE( 1.000000000000000082E-05 ), #117, 'distance_accuracy_value', 'NONE');
#288 = AXIS2_PLACEMENT_3D ( 'NONE', #118, #204, #182 ) ;
#289 = CYLINDRICAL_SURFACE ( 'NONE', #81, 21.00000000000000000 ) ;
#290 = DIRECTION ( 'NONE',  ( -1.000000000000000000, -0.000000000000000000, -0.000000000000000000 ) ) ;
#291 = VERTEX_POINT ( 'NONE', #293 ) ;
#292 = EDGE_LOOP ( 'NONE', ( #17 ) ) ;
#293 = CARTESIAN_POINT ( 'NONE',  ( 0.000000000000000000, 0.000000000000000000, 60.00000000000000000 ) ) ;
#294 = EDGE_CURVE ( 'NONE', #1, #1, #257, .T. ) ;
ENDSEC;
END-ISO-10303-21;
