ISO-10303-21;
HEADER;
FILE_DESCRIPTION (( 'STEP AP214' ),
    '1' );
FILE_NAME ('Entretoise 02.STEP',
    '2023-10-15T18:05:19',
    ( '' ),
    ( '' ),
    'SwSTEP 2.0',
    'SolidWorks 2021',
    '' );
FILE_SCHEMA (( 'AUTOMOTIVE_DESIGN' ));
ENDSEC;

DATA;
#1 = ORIENTED_EDGE ( 'NONE', *, *, #192, .F. ) ;
#2 = CIRCLE ( 'NONE', #149, 17.00000000000000000 ) ;
#3 = DIRECTION ( 'NONE',  ( -1.000000000000000000, -0.000000000000000000, -0.000000000000000000 ) ) ;
#4 = DIRECTION ( 'NONE',  ( -1.000000000000000000, -0.000000000000000000, -0.000000000000000000 ) ) ;
#5 = CARTESIAN_POINT ( 'NONE',  ( 2.300000000002910827, 0.000000000000000000, 0.000000000000000000 ) ) ;
#6 = VERTEX_POINT ( 'NONE', #50 ) ;
#7 = CLOSED_SHELL ( 'NONE', ( #138, #176, #65, #208, #73, #146, #154, #49, #114 ) ) ;
#8 = VERTEX_POINT ( 'NONE', #47 ) ;
#9 = PRODUCT ( 'Entretoise 02', 'Entretoise 02', '', ( #141 ) ) ;
#10 = DIRECTION ( 'NONE',  ( 0.000000000000000000, 0.000000000000000000, 1.000000000000000000 ) ) ;
#11 = APPLICATION_PROTOCOL_DEFINITION ( 'draft international standard', 'automotive_design', 1998, #67 ) ;
#12 = AXIS2_PLACEMENT_3D ( 'NONE', #156, #71, #219 ) ;
#13 = EDGE_LOOP ( 'NONE', ( #93 ) ) ;
#14 = ORIENTED_EDGE ( 'NONE', *, *, #96, .T. ) ;
#15 =( NAMED_UNIT ( * ) SI_UNIT ( $, .STERADIAN. ) SOLID_ANGLE_UNIT ( ) );
#16 = AXIS2_PLACEMENT_3D ( 'NONE', #204, #90, #201 ) ;
#17 = FACE_OUTER_BOUND ( 'NONE', #177, .T. ) ;
#18 = FACE_BOUND ( 'NONE', #21, .T. ) ;
#19 = EDGE_CURVE ( 'NONE', #46, #46, #28, .T. ) ;
#20 = FACE_BOUND ( 'NONE', #76, .T. ) ;
#21 = EDGE_LOOP ( 'NONE', ( #179 ) ) ;
#22 = CIRCLE ( 'NONE', #158, 5.000000000000000000 ) ;
#23 = CYLINDRICAL_SURFACE ( 'NONE', #70, 5.000000000000000000 ) ;
#24 = VERTEX_POINT ( 'NONE', #169 ) ;
#25 = FACE_OUTER_BOUND ( 'NONE', #130, .T. ) ;
#26 = PRODUCT_DEFINITION ( 'UNKNOWN', '', #119, #161 ) ;
#27 = VERTEX_POINT ( 'NONE', #66 ) ;
#28 = CIRCLE ( 'NONE', #210, 8.000000000000000000 ) ;
#29 = DIRECTION ( 'NONE',  ( 0.000000000000000000, 0.000000000000000000, 1.000000000000000000 ) ) ;
#30 = DIRECTION ( 'NONE',  ( 0.000000000000000000, 0.000000000000000000, 1.000000000000000000 ) ) ;
#31 = PRODUCT_DEFINITION_SHAPE ( 'NONE', 'NONE',  #26 ) ;
#32 = ORIENTED_EDGE ( 'NONE', *, *, #232, .T. ) ;
#33 = APPLICATION_PROTOCOL_DEFINITION ( 'draft international standard', 'automotive_design', 1998, #54 ) ;
#34 = EDGE_LOOP ( 'NONE', ( #36 ) ) ;
#35 = CIRCLE ( 'NONE', #225, 3.000000000000000000 ) ;
#36 = ORIENTED_EDGE ( 'NONE', *, *, #131, .F. ) ;
#37 = CARTESIAN_POINT ( 'NONE',  ( 7.300000000002915712, 0.000000000000000000, 0.000000000000000000 ) ) ;
#38 = DIRECTION ( 'NONE',  ( -1.000000000000000000, -0.000000000000000000, -0.000000000000000000 ) ) ;
#39 = SURFACE_SIDE_STYLE ('',( #95 ) ) ;
#40 = MANIFOLD_SOLID_BREP ( 'Révolution1', #7 ) ;
#41 = MECHANICAL_DESIGN_GEOMETRIC_PRESENTATION_REPRESENTATION (  '', ( #56 ), #183 ) ;
#42 = UNCERTAINTY_MEASURE_WITH_UNIT (LENGTH_MEASURE( 1.000000000000000082E-05 ), #63, 'distance_accuracy_value', 'NONE');
#43 = CYLINDRICAL_SURFACE ( 'NONE', #132, 3.000000000000000000 ) ;
#44 = DIRECTION ( 'NONE',  ( 0.000000000000000000, 0.000000000000000000, 1.000000000000000000 ) ) ;
#45 = ADVANCED_BREP_SHAPE_REPRESENTATION ( 'Entretoise 02', ( #40, #233 ), #48 ) ;
#46 = VERTEX_POINT ( 'NONE', #118 ) ;
#47 = CARTESIAN_POINT ( 'NONE',  ( 2.300000000002910827, 0.000000000000000000, 5.000000000000000000 ) ) ;
#48 =( GEOMETRIC_REPRESENTATION_CONTEXT ( 3 ) GLOBAL_UNCERTAINTY_ASSIGNED_CONTEXT ( ( #134 ) ) GLOBAL_UNIT_ASSIGNED_CONTEXT ( ( #227, #126, #109 ) ) REPRESENTATION_CONTEXT ( 'NONE', 'WORKASPACE' ) );
#49 = ADVANCED_FACE ( 'NONE', ( #133, #111 ), #43, .F. ) ;
#50 = CARTESIAN_POINT ( 'NONE',  ( 2.300000000002910827, 0.000000000000000000, 8.000000000000000000 ) ) ;
#51 = CIRCLE ( 'NONE', #121, 8.000000000000000000 ) ;
#52 = CYLINDRICAL_SURFACE ( 'NONE', #117, 20.00000000000000000 ) ;
#53 = PRESENTATION_STYLE_ASSIGNMENT (( #57 ) ) ;
#54 = APPLICATION_CONTEXT ( 'automotive_design' ) ;
#55 = ORIENTED_EDGE ( 'NONE', *, *, #19, .T. ) ;
#56 = STYLED_ITEM ( 'NONE', ( #200 ), #40 ) ;
#57 = SURFACE_STYLE_USAGE ( .BOTH. , #125 ) ;
#58 = COLOUR_RGB ( '',0.7921568627450980005, 0.8196078431372548767, 0.9333333333333333481 ) ;
#59 =( NAMED_UNIT ( * ) PLANE_ANGLE_UNIT ( ) SI_UNIT ( $, .RADIAN. ) );
#60 =( NAMED_UNIT ( * ) PLANE_ANGLE_UNIT ( ) SI_UNIT ( $, .RADIAN. ) );
#61 = DIRECTION ( 'NONE',  ( 0.000000000000000000, 0.000000000000000000, -1.000000000000000000 ) ) ;
#62 =( NAMED_UNIT ( * ) SI_UNIT ( $, .STERADIAN. ) SOLID_ANGLE_UNIT ( ) );
#63 =( LENGTH_UNIT ( ) NAMED_UNIT ( * ) SI_UNIT ( .MILLI., .METRE. ) );
#64 = FACE_BOUND ( 'NONE', #194, .T. ) ;
#65 = ADVANCED_FACE ( 'NONE', ( #180, #17 ), #147, .T. ) ;
#66 = CARTESIAN_POINT ( 'NONE',  ( 0.000000000000000000, 0.000000000000000000, 5.000000000000000000 ) ) ;
#67 = APPLICATION_CONTEXT ( 'automotive_design' ) ;
#68 = DIRECTION ( 'NONE',  ( -1.000000000000000000, -0.000000000000000000, -0.000000000000000000 ) ) ;
#69 = DIRECTION ( 'NONE',  ( 0.000000000000000000, 0.000000000000000000, 1.000000000000000000 ) ) ;
#70 = AXIS2_PLACEMENT_3D ( 'NONE', #122, #68, #10 ) ;
#71 = DIRECTION ( 'NONE',  ( 1.000000000000000000, 0.000000000000000000, 0.000000000000000000 ) ) ;
#72 = EDGE_LOOP ( 'NONE', ( #142 ) ) ;
#73 = ADVANCED_FACE ( 'NONE', ( #20, #112 ), #198, .T. ) ;
#74 = AXIS2_PLACEMENT_3D ( 'NONE', #37, #165, #162 ) ;
#75 = ORIENTED_EDGE ( 'NONE', *, *, #96, .F. ) ;
#76 = EDGE_LOOP ( 'NONE', ( #143 ) ) ;
#77 = CARTESIAN_POINT ( 'NONE',  ( 7.300000000002915712, 0.000000000000000000, 0.000000000000000000 ) ) ;
#78 = EDGE_LOOP ( 'NONE', ( #191 ) ) ;
#79 = PRESENTATION_LAYER_ASSIGNMENT (  '', '', ( #89 ) ) ;
#80 = DIRECTION ( 'NONE',  ( -1.000000000000000000, -0.000000000000000000, -0.000000000000000000 ) ) ;
#81 = SURFACE_STYLE_USAGE ( .BOTH. , #39 ) ;
#82 = CIRCLE ( 'NONE', #127, 5.000000000000000000 ) ;
#83 = CARTESIAN_POINT ( 'NONE',  ( 0.000000000000000000, 0.000000000000000000, 0.000000000000000000 ) ) ;
#84 = FACE_BOUND ( 'NONE', #229, .T. ) ;
#85 = CARTESIAN_POINT ( 'NONE',  ( 2.300000000002910827, 0.000000000000000000, 17.00000000000000000 ) ) ;
#86 = FACE_OUTER_BOUND ( 'NONE', #234, .T. ) ;
#87 = AXIS2_PLACEMENT_3D ( 'NONE', #150, #199, #197 ) ;
#88 = DIRECTION ( 'NONE',  ( -1.000000000000000000, -0.000000000000000000, -0.000000000000000000 ) ) ;
#89 = STYLED_ITEM ( 'NONE', ( #53 ), #45 ) ;
#90 = DIRECTION ( 'NONE',  ( -1.000000000000000000, 0.000000000000000000, -0.000000000000000000 ) ) ;
#91 = ORIENTED_EDGE ( 'NONE', *, *, #215, .F. ) ;
#92 = EDGE_LOOP ( 'NONE', ( #167 ) ) ;
#93 = ORIENTED_EDGE ( 'NONE', *, *, #192, .T. ) ;
#94 = FACE_OUTER_BOUND ( 'NONE', #175, .T. ) ;
#95 = SURFACE_STYLE_FILL_AREA ( #216 ) ;
#96 = EDGE_CURVE ( 'NONE', #186, #186, #230, .T. ) ;
#97 = DIRECTION ( 'NONE',  ( 0.000000000000000000, 0.000000000000000000, -1.000000000000000000 ) ) ;
#98 = ORIENTED_EDGE ( 'NONE', *, *, #131, .T. ) ;
#99 = CIRCLE ( 'NONE', #178, 20.00000000000000000 ) ;
#100 = CARTESIAN_POINT ( 'NONE',  ( 2.300000000002910827, 0.000000000000000000, 0.000000000000000000 ) ) ;
#101 = CARTESIAN_POINT ( 'NONE',  ( 7.300000000002915712, 0.000000000000000000, 3.000000000000000000 ) ) ;
#102 = FACE_BOUND ( 'NONE', #34, .T. ) ;
#103 = DIRECTION ( 'NONE',  ( 0.000000000000000000, 0.000000000000000000, 1.000000000000000000 ) ) ;
#104 = AXIS2_PLACEMENT_3D ( 'NONE', #115, #184, #97 ) ;
#105 = CARTESIAN_POINT ( 'NONE',  ( -88.98999999999999488, 0.000000000000000000, 0.000000000000000000 ) ) ;
#106 = DIRECTION ( 'NONE',  ( 1.000000000000000000, 0.000000000000000000, 0.000000000000000000 ) ) ;
#107 = ORIENTED_EDGE ( 'NONE', *, *, #215, .T. ) ;
#108 = EDGE_CURVE ( 'NONE', #24, #24, #211, .T. ) ;
#109 =( NAMED_UNIT ( * ) SI_UNIT ( $, .STERADIAN. ) SOLID_ANGLE_UNIT ( ) );
#110 = SHAPE_DEFINITION_REPRESENTATION ( #31, #45 ) ;
#111 = FACE_OUTER_BOUND ( 'NONE', #72, .T. ) ;
#112 = FACE_OUTER_BOUND ( 'NONE', #13, .T. ) ;
#113 = FACE_OUTER_BOUND ( 'NONE', #78, .T. ) ;
#114 = ADVANCED_FACE ( 'NONE', ( #18, #94 ), #163, .F. ) ;
#115 = CARTESIAN_POINT ( 'NONE',  ( 5.300000000002913936, 0.000000000000000000, 0.000000000000000000 ) ) ;
#116 = CARTESIAN_POINT ( 'NONE',  ( 2.300000000002910827, 0.000000000000000000, 0.000000000000000000 ) ) ;
#117 = AXIS2_PLACEMENT_3D ( 'NONE', #105, #173, #103 ) ;
#118 = CARTESIAN_POINT ( 'NONE',  ( 0.000000000000000000, 0.000000000000000000, 8.000000000000000000 ) ) ;
#119 = PRODUCT_DEFINITION_FORMATION_WITH_SPECIFIED_SOURCE ( 'ANY', '', #9, .NOT_KNOWN. ) ;
#120 = VERTEX_POINT ( 'NONE', #85 ) ;
#121 = AXIS2_PLACEMENT_3D ( 'NONE', #196, #38, #182 ) ;
#122 = CARTESIAN_POINT ( 'NONE',  ( -88.98999999999999488, 0.000000000000000000, 0.000000000000000000 ) ) ;
#123 = FILL_AREA_STYLE_COLOUR ( '', #58 ) ;
#124 = EDGE_LOOP ( 'NONE', ( #75 ) ) ;
#125 = SURFACE_SIDE_STYLE ('',( #174 ) ) ;
#126 =( NAMED_UNIT ( * ) PLANE_ANGLE_UNIT ( ) SI_UNIT ( $, .RADIAN. ) );
#127 = AXIS2_PLACEMENT_3D ( 'NONE', #172, #221, #44 ) ;
#128 = EDGE_LOOP ( 'NONE', ( #1 ) ) ;
#129 = ORIENTED_EDGE ( 'NONE', *, *, #108, .F. ) ;
#130 = EDGE_LOOP ( 'NONE', ( #55 ) ) ;
#131 = EDGE_CURVE ( 'NONE', #6, #6, #51, .T. ) ;
#132 = AXIS2_PLACEMENT_3D ( 'NONE', #148, #80, #214 ) ;
#133 = FACE_OUTER_BOUND ( 'NONE', #124, .T. ) ;
#134 = UNCERTAINTY_MEASURE_WITH_UNIT (LENGTH_MEASURE( 1.000000000000000082E-05 ), #227, 'distance_accuracy_value', 'NONE');
#135 = DIRECTION ( 'NONE',  ( 0.000000000000000000, 0.000000000000000000, 1.000000000000000000 ) ) ;
#136 = VERTEX_POINT ( 'NONE', #202 ) ;
#137 = PLANE ( 'NONE',  #139 ) ;
#138 = ADVANCED_FACE ( 'NONE', ( #113, #157 ), #23, .F. ) ;
#139 = AXIS2_PLACEMENT_3D ( 'NONE', #187, #203, #218 ) ;
#140 = CARTESIAN_POINT ( 'NONE',  ( 5.300000000002913936, 0.000000000000000000, 0.000000000000000000 ) ) ;
#141 = PRODUCT_CONTEXT ( 'NONE', #54, 'mechanical' ) ;
#142 = ORIENTED_EDGE ( 'NONE', *, *, #226, .T. ) ;
#143 = ORIENTED_EDGE ( 'NONE', *, *, #170, .F. ) ;
#144 = COLOUR_RGB ( '',0.7921568627450980005, 0.8196078431372548767, 0.9333333333333333481 ) ;
#145 = EDGE_LOOP ( 'NONE', ( #209 ) ) ;
#146 = ADVANCED_FACE ( 'NONE', ( #185, #86 ), #52, .T. ) ;
#147 = CYLINDRICAL_SURFACE ( 'NONE', #87, 8.000000000000000000 ) ;
#148 = CARTESIAN_POINT ( 'NONE',  ( -88.98999999999999488, 0.000000000000000000, 0.000000000000000000 ) ) ;
#149 = AXIS2_PLACEMENT_3D ( 'NONE', #5, #88, #69 ) ;
#150 = CARTESIAN_POINT ( 'NONE',  ( -88.98999999999999488, 0.000000000000000000, 0.000000000000000000 ) ) ;
#151 = DIRECTION ( 'NONE',  ( 0.000000000000000000, 0.000000000000000000, 1.000000000000000000 ) ) ;
#152 = DIRECTION ( 'NONE',  ( -1.000000000000000000, -0.000000000000000000, -0.000000000000000000 ) ) ;
#153 = VERTEX_POINT ( 'NONE', #188 ) ;
#154 = ADVANCED_FACE ( 'NONE', ( #168, #64 ), #224, .F. ) ;
#155 = PLANE ( 'NONE',  #12 ) ;
#156 = CARTESIAN_POINT ( 'NONE',  ( 0.000000000000000000, 5.000000000000000000, 0.000000000000000000 ) ) ;
#157 = FACE_OUTER_BOUND ( 'NONE', #160, .T. ) ;
#158 = AXIS2_PLACEMENT_3D ( 'NONE', #100, #4, #135 ) ;
#159 = UNCERTAINTY_MEASURE_WITH_UNIT (LENGTH_MEASURE( 1.000000000000000082E-05 ), #228, 'distance_accuracy_value', 'NONE');
#160 = EDGE_LOOP ( 'NONE', ( #107 ) ) ;
#161 = PRODUCT_DEFINITION_CONTEXT ( 'detailed design', #67, 'design' ) ;
#162 = DIRECTION ( 'NONE',  ( 0.000000000000000000, 0.000000000000000000, 1.000000000000000000 ) ) ;
#163 = PLANE ( 'NONE',  #166 ) ;
#164 = ORIENTED_EDGE ( 'NONE', *, *, #108, .T. ) ;
#165 = DIRECTION ( 'NONE',  ( -1.000000000000000000, -0.000000000000000000, -0.000000000000000000 ) ) ;
#166 = AXIS2_PLACEMENT_3D ( 'NONE', #231, #213, #61 ) ;
#167 = ORIENTED_EDGE ( 'NONE', *, *, #19, .F. ) ;
#168 = FACE_OUTER_BOUND ( 'NONE', #195, .T. ) ;
#169 = CARTESIAN_POINT ( 'NONE',  ( 7.300000000002915712, 0.000000000000000000, 20.00000000000000000 ) ) ;
#170 = EDGE_CURVE ( 'NONE', #120, #120, #2, .T. ) ;
#171 = FACE_OUTER_BOUND ( 'NONE', #145, .T. ) ;
#172 = CARTESIAN_POINT ( 'NONE',  ( 0.000000000000000000, 0.000000000000000000, 0.000000000000000000 ) ) ;
#173 = DIRECTION ( 'NONE',  ( -1.000000000000000000, -0.000000000000000000, -0.000000000000000000 ) ) ;
#174 = SURFACE_STYLE_FILL_AREA ( #206 ) ;
#175 = EDGE_LOOP ( 'NONE', ( #32 ) ) ;
#176 = ADVANCED_FACE ( 'NONE', ( #84, #25 ), #155, .F. ) ;
#177 = EDGE_LOOP ( 'NONE', ( #98 ) ) ;
#178 = AXIS2_PLACEMENT_3D ( 'NONE', #140, #190, #29 ) ;
#179 = ORIENTED_EDGE ( 'NONE', *, *, #226, .F. ) ;
#180 = FACE_OUTER_BOUND ( 'NONE', #92, .T. ) ;
#181 = DIRECTION ( 'NONE',  ( 0.000000000000000000, 0.000000000000000000, 1.000000000000000000 ) ) ;
#182 = DIRECTION ( 'NONE',  ( 0.000000000000000000, 0.000000000000000000, 1.000000000000000000 ) ) ;
#183 =( GEOMETRIC_REPRESENTATION_CONTEXT ( 3 ) GLOBAL_UNCERTAINTY_ASSIGNED_CONTEXT ( ( #42 ) ) GLOBAL_UNIT_ASSIGNED_CONTEXT ( ( #63, #60, #62 ) ) REPRESENTATION_CONTEXT ( 'NONE', 'WORKASPACE' ) );
#184 = DIRECTION ( 'NONE',  ( 1.000000000000000000, 0.000000000000000000, 0.000000000000000000 ) ) ;
#185 = FACE_OUTER_BOUND ( 'NONE', #128, .T. ) ;
#186 = VERTEX_POINT ( 'NONE', #101 ) ;
#187 = CARTESIAN_POINT ( 'NONE',  ( 2.300000000002910383, 8.000000000000000000, 0.000000000000000000 ) ) ;
#188 = CARTESIAN_POINT ( 'NONE',  ( 5.300000000002913936, 0.000000000000000000, 20.00000000000000000 ) ) ;
#189 = PRODUCT_RELATED_PRODUCT_CATEGORY ( 'part', '', ( #9 ) ) ;
#190 = DIRECTION ( 'NONE',  ( -1.000000000000000000, -0.000000000000000000, -0.000000000000000000 ) ) ;
#191 = ORIENTED_EDGE ( 'NONE', *, *, #232, .F. ) ;
#192 = EDGE_CURVE ( 'NONE', #153, #153, #99, .T. ) ;
#193 = MECHANICAL_DESIGN_GEOMETRIC_PRESENTATION_REPRESENTATION (  '', ( #89 ), #222 ) ;
#194 = EDGE_LOOP ( 'NONE', ( #14 ) ) ;
#195 = EDGE_LOOP ( 'NONE', ( #129 ) ) ;
#196 = CARTESIAN_POINT ( 'NONE',  ( 2.300000000002910827, 0.000000000000000000, 0.000000000000000000 ) ) ;
#197 = DIRECTION ( 'NONE',  ( 0.000000000000000000, 0.000000000000000000, 1.000000000000000000 ) ) ;
#198 = CONICAL_SURFACE ( 'NONE', #104, 20.00000000000000000, 0.7853981633974477239 ) ;
#199 = DIRECTION ( 'NONE',  ( -1.000000000000000000, -0.000000000000000000, -0.000000000000000000 ) ) ;
#200 = PRESENTATION_STYLE_ASSIGNMENT (( #81 ) ) ;
#201 = DIRECTION ( 'NONE',  ( -0.000000000000000000, 0.000000000000000000, 1.000000000000000000 ) ) ;
#202 = CARTESIAN_POINT ( 'NONE',  ( 2.300000000002910827, 0.000000000000000000, 3.000000000000000000 ) ) ;
#203 = DIRECTION ( 'NONE',  ( 1.000000000000000000, 0.000000000000000000, 0.000000000000000000 ) ) ;
#204 = CARTESIAN_POINT ( 'NONE',  ( 7.300000000002911271, 20.00000000000000000, 0.000000000000000000 ) ) ;
#205 = AXIS2_PLACEMENT_3D ( 'NONE', #77, #212, #181 ) ;
#206 = FILL_AREA_STYLE ('',( #123 ) ) ;
#207 = CARTESIAN_POINT ( 'NONE',  ( 0.000000000000000000, 0.000000000000000000, 0.000000000000000000 ) ) ;
#208 = ADVANCED_FACE ( 'NONE', ( #102, #171 ), #137, .F. ) ;
#209 = ORIENTED_EDGE ( 'NONE', *, *, #170, .T. ) ;
#210 = AXIS2_PLACEMENT_3D ( 'NONE', #83, #3, #151 ) ;
#211 = CIRCLE ( 'NONE', #205, 20.00000000000000000 ) ;
#212 = DIRECTION ( 'NONE',  ( -1.000000000000000000, -0.000000000000000000, -0.000000000000000000 ) ) ;
#213 = DIRECTION ( 'NONE',  ( 1.000000000000000000, 0.000000000000000000, 0.000000000000000000 ) ) ;
#214 = DIRECTION ( 'NONE',  ( 0.000000000000000000, 0.000000000000000000, 1.000000000000000000 ) ) ;
#215 = EDGE_CURVE ( 'NONE', #27, #27, #82, .T. ) ;
#216 = FILL_AREA_STYLE ('',( #217 ) ) ;
#217 = FILL_AREA_STYLE_COLOUR ( '', #144 ) ;
#218 = DIRECTION ( 'NONE',  ( 0.000000000000000000, 0.000000000000000000, -1.000000000000000000 ) ) ;
#219 = DIRECTION ( 'NONE',  ( 0.000000000000000000, 0.000000000000000000, -1.000000000000000000 ) ) ;
#220 = PRESENTATION_LAYER_ASSIGNMENT (  '', '', ( #56 ) ) ;
#221 = DIRECTION ( 'NONE',  ( -1.000000000000000000, -0.000000000000000000, -0.000000000000000000 ) ) ;
#222 =( GEOMETRIC_REPRESENTATION_CONTEXT ( 3 ) GLOBAL_UNCERTAINTY_ASSIGNED_CONTEXT ( ( #159 ) ) GLOBAL_UNIT_ASSIGNED_CONTEXT ( ( #228, #59, #15 ) ) REPRESENTATION_CONTEXT ( 'NONE', 'WORKASPACE' ) );
#223 = DIRECTION ( 'NONE',  ( 0.000000000000000000, 0.000000000000000000, 1.000000000000000000 ) ) ;
#224 = PLANE ( 'NONE',  #16 ) ;
#225 = AXIS2_PLACEMENT_3D ( 'NONE', #116, #152, #223 ) ;
#226 = EDGE_CURVE ( 'NONE', #136, #136, #35, .T. ) ;
#227 =( LENGTH_UNIT ( ) NAMED_UNIT ( * ) SI_UNIT ( .MILLI., .METRE. ) );
#228 =( LENGTH_UNIT ( ) NAMED_UNIT ( * ) SI_UNIT ( .MILLI., .METRE. ) );
#229 = EDGE_LOOP ( 'NONE', ( #91 ) ) ;
#230 = CIRCLE ( 'NONE', #74, 3.000000000000000000 ) ;
#231 = CARTESIAN_POINT ( 'NONE',  ( 2.300000000002910383, 3.000000000000000000, 0.000000000000000000 ) ) ;
#232 = EDGE_CURVE ( 'NONE', #8, #8, #22, .T. ) ;
#233 = AXIS2_PLACEMENT_3D ( 'NONE', #207, #30, #106 ) ;
#234 = EDGE_LOOP ( 'NONE', ( #164 ) ) ;
ENDSEC;
END-ISO-10303-21;
