ISO-10303-21;
HEADER;

/* File generated by Shapr3D Version 3.0 */

FILE_DESCRIPTION(('HOOPS Exchange Step'),'2;1');

FILE_NAME('/private/var/mobile/Containers/Data/Application/9C9FC6B2-FDA4-4E69-BB8D-D842336057DD/tmp/export/temp_export',
'2023-10-29T18:52:23+01:00',
('mobile'),
('Shapr3D Limited'),
'HOOPS Exchange 2023.2',
'Shapr3D',
'Authorized');

FILE_SCHEMA( ('AUTOMOTIVE_DESIGN { 1 0 10303 214 1 1 1 1 }') );

ENDSEC;

DATA;
#3=(NAMED_UNIT(*)PLANE_ANGLE_UNIT()SI_UNIT($,.RADIAN.));
#4=PLANE_ANGLE_MEASURE_WITH_UNIT(PLANE_ANGLE_MEASURE(0.0174532925),#3);
#5=(CONVERSION_BASED_UNIT('DEGREE',#4)NAMED_UNIT(#6)PLANE_ANGLE_UNIT());
#6=DIMENSIONAL_EXPONENTS(0.,0.,0.,0.,0.,0.,0.);
#7=(NAMED_UNIT(*)SI_UNIT($,.STERADIAN.)SOLID_ANGLE_UNIT());
#8=(LENGTH_UNIT()NAMED_UNIT(*)SI_UNIT(.MILLI.,.METRE.));
#9=UNCERTAINTY_MEASURE_WITH_UNIT(LENGTH_MEASURE(1.000000E-05),#8,'DISTANCE_ACCURACY_VALUE','Maximum Tolerance applied to model');
#10=(GEOMETRIC_REPRESENTATION_CONTEXT(3)GLOBAL_UNCERTAINTY_ASSIGNED_CONTEXT((#9))GLOBAL_UNIT_ASSIGNED_CONTEXT((#8,#5,#7))REPRESENTATION_CONTEXT('','root'));
#12=CARTESIAN_POINT('',(0.,0.,0.));
#13=DIRECTION('',(0.,0.,1.));
#14=DIRECTION('',(1.,0.,0.));
#15=AXIS2_PLACEMENT_3D('',#12,#13,#14);
#27=CARTESIAN_POINT('',(0.,-5.,0.));
#28=DIRECTION('',(0.,1.,0.));
#29=DIRECTION('',(0.,-0.,1.));
#30=AXIS2_PLACEMENT_3D('',#27,#28,#29);
#31=CYLINDRICAL_SURFACE('',#30,23.);
#32=CARTESIAN_POINT('',(0.,0.,23.));
#33=VERTEX_POINT('',#32);
#34=CARTESIAN_POINT('',(0.,-5.,23.));
#35=VERTEX_POINT('',#34);
#36=CARTESIAN_POINT('',(0.,-0.,23.));
#37=DIRECTION('',(-0.,-1.,-0.));
#38=VECTOR('',#37,5.);
#39=LINE('',#36,#38);
#40=EDGE_CURVE('',#33,#35,#39,.T.);
#41=ORIENTED_EDGE('',*,*,#40,.T.);
#42=CARTESIAN_POINT('',(-0.,-5.,-23.));
#43=VERTEX_POINT('',#42);
#44=CARTESIAN_POINT('',(0.,-5.,0.));
#45=DIRECTION('',(0.,-1.,0.));
#46=DIRECTION('',(0.,0.,-1.));
#47=AXIS2_PLACEMENT_3D('',#44,#45,#46);
#48=CIRCLE('',#47,23.);
#49=EDGE_CURVE('',#43,#35,#48,.T.);
#50=ORIENTED_EDGE('',*,*,#49,.F.);
#51=CARTESIAN_POINT('',(0.,-5.,0.));
#52=DIRECTION('',(0.,-1.,0.));
#53=DIRECTION('',(0.,0.,-1.));
#54=AXIS2_PLACEMENT_3D('',#51,#52,#53);
#55=CIRCLE('',#54,23.);
#56=EDGE_CURVE('',#35,#43,#55,.T.);
#57=ORIENTED_EDGE('',*,*,#56,.F.);
#58=ORIENTED_EDGE('',*,*,#40,.F.);
#59=CARTESIAN_POINT('',(-0.,0.,-23.));
#60=VERTEX_POINT('',#59);
#61=CARTESIAN_POINT('',(0.,0.,0.));
#62=DIRECTION('',(0.,-1.,0.));
#63=DIRECTION('',(0.,0.,-1.));
#64=AXIS2_PLACEMENT_3D('',#61,#62,#63);
#65=CIRCLE('',#64,23.);
#66=EDGE_CURVE('',#33,#60,#65,.T.);
#67=ORIENTED_EDGE('',*,*,#66,.T.);
#68=CARTESIAN_POINT('',(0.,0.,0.));
#69=DIRECTION('',(0.,-1.,0.));
#70=DIRECTION('',(0.,0.,-1.));
#71=AXIS2_PLACEMENT_3D('',#68,#69,#70);
#72=CIRCLE('',#71,23.);
#73=EDGE_CURVE('',#60,#33,#72,.T.);
#74=ORIENTED_EDGE('',*,*,#73,.T.);
#75=EDGE_LOOP('',(#41,#50,#57,#58,#67,#74));
#76=FACE_BOUND('',#75,.T.);
#77=ADVANCED_FACE('',(#76),#31,.T.);
#78=CARTESIAN_POINT('',(0.,-5.,0.));
#79=DIRECTION('',(0.,1.,0.));
#80=DIRECTION('',(0.,-0.,1.));
#81=AXIS2_PLACEMENT_3D('',#78,#79,#80);
#82=CYLINDRICAL_SURFACE('',#81,14.5);
#83=CARTESIAN_POINT('',(0.,0.,14.5));
#84=VERTEX_POINT('',#83);
#85=CARTESIAN_POINT('',(0.,-5.,14.5));
#86=VERTEX_POINT('',#85);
#87=CARTESIAN_POINT('',(0.,-0.,14.5));
#88=DIRECTION('',(-0.,-1.,-0.));
#89=VECTOR('',#88,5.);
#90=LINE('',#87,#89);
#91=EDGE_CURVE('',#84,#86,#90,.T.);
#92=ORIENTED_EDGE('',*,*,#91,.F.);
#93=CARTESIAN_POINT('',(-0.,0.,-14.5));
#94=VERTEX_POINT('',#93);
#95=CARTESIAN_POINT('',(0.,0.,0.));
#96=DIRECTION('',(0.,-1.,0.));
#97=DIRECTION('',(0.,0.,-1.));
#98=AXIS2_PLACEMENT_3D('',#95,#96,#97);
#99=CIRCLE('',#98,14.5);
#100=EDGE_CURVE('',#94,#84,#99,.T.);
#101=ORIENTED_EDGE('',*,*,#100,.F.);
#102=CARTESIAN_POINT('',(0.,0.,0.));
#103=DIRECTION('',(0.,-1.,0.));
#104=DIRECTION('',(0.,0.,-1.));
#105=AXIS2_PLACEMENT_3D('',#102,#103,#104);
#106=CIRCLE('',#105,14.5);
#107=EDGE_CURVE('',#84,#94,#106,.T.);
#108=ORIENTED_EDGE('',*,*,#107,.F.);
#109=ORIENTED_EDGE('',*,*,#91,.T.);
#110=CARTESIAN_POINT('',(-0.,-5.,-14.5));
#111=VERTEX_POINT('',#110);
#112=CARTESIAN_POINT('',(0.,-5.,0.));
#113=DIRECTION('',(0.,-1.,0.));
#114=DIRECTION('',(0.,0.,-1.));
#115=AXIS2_PLACEMENT_3D('',#112,#113,#114);
#116=CIRCLE('',#115,14.5);
#117=EDGE_CURVE('',#86,#111,#116,.T.);
#118=ORIENTED_EDGE('',*,*,#117,.T.);
#119=CARTESIAN_POINT('',(0.,-5.,0.));
#120=DIRECTION('',(0.,-1.,0.));
#121=DIRECTION('',(0.,0.,-1.));
#122=AXIS2_PLACEMENT_3D('',#119,#120,#121);
#123=CIRCLE('',#122,14.5);
#124=EDGE_CURVE('',#111,#86,#123,.T.);
#125=ORIENTED_EDGE('',*,*,#124,.T.);
#126=EDGE_LOOP('',(#92,#101,#108,#109,#118,#125));
#127=FACE_BOUND('',#126,.T.);
#128=ADVANCED_FACE('',(#127),#82,.F.);
#129=CARTESIAN_POINT('',(0.,-5.,0.));
#130=DIRECTION('',(0.,-1.,0.));
#131=DIRECTION('',(0.,0.,-1.));
#132=AXIS2_PLACEMENT_3D('',#129,#130,#131);
#133=PLANE('',#132);
#134=ORIENTED_EDGE('',*,*,#49,.T.);
#135=ORIENTED_EDGE('',*,*,#56,.T.);
#136=EDGE_LOOP('',(#134,#135));
#137=FACE_BOUND('',#136,.T.);
#138=ORIENTED_EDGE('',*,*,#117,.F.);
#139=ORIENTED_EDGE('',*,*,#124,.F.);
#140=EDGE_LOOP('',(#138,#139));
#141=FACE_BOUND('',#140,.T.);
#142=ADVANCED_FACE('',(#137,#141),#133,.T.);
#143=CARTESIAN_POINT('',(0.,0.,0.));
#144=DIRECTION('',(0.,-1.,0.));
#145=DIRECTION('',(0.,0.,-1.));
#146=AXIS2_PLACEMENT_3D('',#143,#144,#145);
#147=PLANE('',#146);
#148=ORIENTED_EDGE('',*,*,#66,.F.);
#149=ORIENTED_EDGE('',*,*,#73,.F.);
#150=EDGE_LOOP('',(#148,#149));
#151=FACE_BOUND('',#150,.T.);
#152=ORIENTED_EDGE('',*,*,#100,.T.);
#153=ORIENTED_EDGE('',*,*,#107,.T.);
#154=EDGE_LOOP('',(#152,#153));
#155=FACE_BOUND('',#154,.T.);
#156=ADVANCED_FACE('',(#151,#155),#147,.F.);
#157=CLOSED_SHELL('',(#77,#128,#142,#156));
#158=MANIFOLD_SOLID_BREP('Corps 02',#157);
#159=COLOUR_RGB('',0.494117647,0.494117647,0.525490224);
#160=FILL_AREA_STYLE_COLOUR('',#159);
#161=FILL_AREA_STYLE('',(#160));
#162=SURFACE_STYLE_FILL_AREA(#161);
#163=SURFACE_SIDE_STYLE('',(#162));
#164=SURFACE_STYLE_USAGE(.BOTH.,#163);
#165=PRESENTATION_STYLE_ASSIGNMENT((#164));
#26=STYLED_ITEM('',(#165),#158);
#167=CARTESIAN_POINT('',(-28.277356905,-10.,-10.019535243));
#168=DIRECTION('',(0.,1.,0.));
#169=DIRECTION('',(0.,-0.,1.));
#170=AXIS2_PLACEMENT_3D('',#167,#168,#169);
#171=CYLINDRICAL_SURFACE('',#170,3.);
#172=CARTESIAN_POINT('',(-28.277356905,0.,-7.019535243));
#173=VERTEX_POINT('',#172);
#174=CARTESIAN_POINT('',(-28.277356905,-10.,-7.019535243));
#175=VERTEX_POINT('',#174);
#176=CARTESIAN_POINT('',(-28.277356905,-0.,-7.019535243));
#177=DIRECTION('',(-0.,-1.,-0.));
#178=VECTOR('',#177,10.);
#179=LINE('',#176,#178);
#180=EDGE_CURVE('',#173,#175,#179,.T.);
#181=ORIENTED_EDGE('',*,*,#180,.F.);
#182=CARTESIAN_POINT('',(-28.277356905,0.,-13.019535243));
#183=VERTEX_POINT('',#182);
#184=CARTESIAN_POINT('',(-28.277356905,0.,-10.019535243));
#185=DIRECTION('',(0.,-1.,0.));
#186=DIRECTION('',(0.,0.,-1.));
#187=AXIS2_PLACEMENT_3D('',#184,#185,#186);
#188=CIRCLE('',#187,3.);
#189=EDGE_CURVE('',#183,#173,#188,.T.);
#190=ORIENTED_EDGE('',*,*,#189,.F.);
#191=CARTESIAN_POINT('',(-28.277356905,0.,-10.019535243));
#192=DIRECTION('',(0.,-1.,0.));
#193=DIRECTION('',(0.,0.,-1.));
#194=AXIS2_PLACEMENT_3D('',#191,#192,#193);
#195=CIRCLE('',#194,3.);
#196=EDGE_CURVE('',#173,#183,#195,.T.);
#197=ORIENTED_EDGE('',*,*,#196,.F.);
#198=ORIENTED_EDGE('',*,*,#180,.T.);
#199=CARTESIAN_POINT('',(-28.277356905,-10.,-13.019535243));
#200=VERTEX_POINT('',#199);
#201=CARTESIAN_POINT('',(-28.277356905,-10.,-10.019535243));
#202=DIRECTION('',(0.,-1.,0.));
#203=DIRECTION('',(0.,0.,-1.));
#204=AXIS2_PLACEMENT_3D('',#201,#202,#203);
#205=CIRCLE('',#204,3.);
#206=EDGE_CURVE('',#175,#200,#205,.T.);
#207=ORIENTED_EDGE('',*,*,#206,.T.);
#208=CARTESIAN_POINT('',(-28.277356905,-10.,-10.019535243));
#209=DIRECTION('',(0.,-1.,0.));
#210=DIRECTION('',(0.,0.,-1.));
#211=AXIS2_PLACEMENT_3D('',#208,#209,#210);
#212=CIRCLE('',#211,3.);
#213=EDGE_CURVE('',#200,#175,#212,.T.);
#214=ORIENTED_EDGE('',*,*,#213,.T.);
#215=EDGE_LOOP('',(#181,#190,#197,#198,#207,#214));
#216=FACE_BOUND('',#215,.T.);
#217=ADVANCED_FACE('',(#216),#171,.F.);
#218=CARTESIAN_POINT('',(0.,-10.,0.));
#219=DIRECTION('',(0.,1.,0.));
#220=DIRECTION('',(0.,-0.,1.));
#221=AXIS2_PLACEMENT_3D('',#218,#219,#220);
#222=CYLINDRICAL_SURFACE('',#221,36.5);
#223=CARTESIAN_POINT('',(0.,0.,36.5));
#224=VERTEX_POINT('',#223);
#225=CARTESIAN_POINT('',(0.,-10.,36.5));
#226=VERTEX_POINT('',#225);
#227=CARTESIAN_POINT('',(0.,-0.,36.5));
#228=DIRECTION('',(-0.,-1.,-0.));
#229=VECTOR('',#228,10.);
#230=LINE('',#227,#229);
#231=EDGE_CURVE('',#224,#226,#230,.T.);
#232=ORIENTED_EDGE('',*,*,#231,.T.);
#233=CARTESIAN_POINT('',(-0.,-10.,-36.5));
#234=VERTEX_POINT('',#233);
#235=CARTESIAN_POINT('',(0.,-10.,0.));
#236=DIRECTION('',(0.,-1.,0.));
#237=DIRECTION('',(0.,0.,-1.));
#238=AXIS2_PLACEMENT_3D('',#235,#236,#237);
#239=CIRCLE('',#238,36.5);
#240=EDGE_CURVE('',#234,#226,#239,.T.);
#241=ORIENTED_EDGE('',*,*,#240,.F.);
#242=CARTESIAN_POINT('',(0.,-10.,0.));
#243=DIRECTION('',(0.,-1.,0.));
#244=DIRECTION('',(0.,0.,-1.));
#245=AXIS2_PLACEMENT_3D('',#242,#243,#244);
#246=CIRCLE('',#245,36.5);
#247=EDGE_CURVE('',#226,#234,#246,.T.);
#248=ORIENTED_EDGE('',*,*,#247,.F.);
#249=ORIENTED_EDGE('',*,*,#231,.F.);
#250=CARTESIAN_POINT('',(-0.,0.,-36.5));
#251=VERTEX_POINT('',#250);
#252=CARTESIAN_POINT('',(0.,0.,0.));
#253=DIRECTION('',(0.,-1.,0.));
#254=DIRECTION('',(0.,0.,-1.));
#255=AXIS2_PLACEMENT_3D('',#252,#253,#254);
#256=CIRCLE('',#255,36.5);
#257=EDGE_CURVE('',#224,#251,#256,.T.);
#258=ORIENTED_EDGE('',*,*,#257,.T.);
#259=CARTESIAN_POINT('',(0.,0.,0.));
#260=DIRECTION('',(0.,-1.,0.));
#261=DIRECTION('',(0.,0.,-1.));
#262=AXIS2_PLACEMENT_3D('',#259,#260,#261);
#263=CIRCLE('',#262,36.5);
#264=EDGE_CURVE('',#251,#224,#263,.T.);
#265=ORIENTED_EDGE('',*,*,#264,.T.);
#266=EDGE_LOOP('',(#232,#241,#248,#249,#258,#265));
#267=FACE_BOUND('',#266,.T.);
#268=ADVANCED_FACE('',(#267),#222,.T.);
#269=CARTESIAN_POINT('',(27.483164015,-10.,-12.02812104));
#270=DIRECTION('',(0.,1.,0.));
#271=DIRECTION('',(0.,-0.,1.));
#272=AXIS2_PLACEMENT_3D('',#269,#270,#271);
#273=CYLINDRICAL_SURFACE('',#272,3.);
#274=CARTESIAN_POINT('',(27.483164015,0.,-9.02812104));
#275=VERTEX_POINT('',#274);
#276=CARTESIAN_POINT('',(27.483164015,-10.,-9.02812104));
#277=VERTEX_POINT('',#276);
#278=CARTESIAN_POINT('',(27.483164015,-0.,-9.02812104));
#279=DIRECTION('',(-0.,-1.,-0.));
#280=VECTOR('',#279,10.);
#281=LINE('',#278,#280);
#282=EDGE_CURVE('',#275,#277,#281,.T.);
#283=ORIENTED_EDGE('',*,*,#282,.F.);
#284=CARTESIAN_POINT('',(27.483164015,0.,-15.02812104));
#285=VERTEX_POINT('',#284);
#286=CARTESIAN_POINT('',(27.483164015,0.,-12.02812104));
#287=DIRECTION('',(0.,-1.,0.));
#288=DIRECTION('',(0.,0.,-1.));
#289=AXIS2_PLACEMENT_3D('',#286,#287,#288);
#290=CIRCLE('',#289,3.);
#291=EDGE_CURVE('',#285,#275,#290,.T.);
#292=ORIENTED_EDGE('',*,*,#291,.F.);
#293=CARTESIAN_POINT('',(27.483164015,0.,-12.02812104));
#294=DIRECTION('',(0.,-1.,0.));
#295=DIRECTION('',(0.,0.,-1.));
#296=AXIS2_PLACEMENT_3D('',#293,#294,#295);
#297=CIRCLE('',#296,3.);
#298=EDGE_CURVE('',#275,#285,#297,.T.);
#299=ORIENTED_EDGE('',*,*,#298,.F.);
#300=ORIENTED_EDGE('',*,*,#282,.T.);
#301=CARTESIAN_POINT('',(27.483164015,-10.,-15.02812104));
#302=VERTEX_POINT('',#301);
#303=CARTESIAN_POINT('',(27.483164015,-10.,-12.02812104));
#304=DIRECTION('',(0.,-1.,0.));
#305=DIRECTION('',(0.,0.,-1.));
#306=AXIS2_PLACEMENT_3D('',#303,#304,#305);
#307=CIRCLE('',#306,3.);
#308=EDGE_CURVE('',#277,#302,#307,.T.);
#309=ORIENTED_EDGE('',*,*,#308,.T.);
#310=CARTESIAN_POINT('',(27.483164015,-10.,-12.02812104));
#311=DIRECTION('',(0.,-1.,0.));
#312=DIRECTION('',(0.,0.,-1.));
#313=AXIS2_PLACEMENT_3D('',#310,#311,#312);
#314=CIRCLE('',#313,3.);
#315=EDGE_CURVE('',#302,#277,#314,.T.);
#316=ORIENTED_EDGE('',*,*,#315,.T.);
#317=EDGE_LOOP('',(#283,#292,#299,#300,#309,#316));
#318=FACE_BOUND('',#317,.T.);
#319=ADVANCED_FACE('',(#318),#273,.F.);
#320=CARTESIAN_POINT('',(-3.324923627,-10.,29.815178733));
#321=DIRECTION('',(0.,1.,0.));
#322=DIRECTION('',(0.,-0.,1.));
#323=AXIS2_PLACEMENT_3D('',#320,#321,#322);
#324=CYLINDRICAL_SURFACE('',#323,3.);
#325=CARTESIAN_POINT('',(-3.324923627,0.,32.815178733));
#326=VERTEX_POINT('',#325);
#327=CARTESIAN_POINT('',(-3.324923627,-10.,32.815178733));
#328=VERTEX_POINT('',#327);
#329=CARTESIAN_POINT('',(-3.324923627,-0.,32.815178733));
#330=DIRECTION('',(-0.,-1.,-0.));
#331=VECTOR('',#330,10.);
#332=LINE('',#329,#331);
#333=EDGE_CURVE('',#326,#328,#332,.T.);
#334=ORIENTED_EDGE('',*,*,#333,.F.);
#335=CARTESIAN_POINT('',(-3.324923627,0.,26.815178733));
#336=VERTEX_POINT('',#335);
#337=CARTESIAN_POINT('',(-3.324923627,0.,29.815178733));
#338=DIRECTION('',(0.,-1.,0.));
#339=DIRECTION('',(0.,0.,-1.));
#340=AXIS2_PLACEMENT_3D('',#337,#338,#339);
#341=CIRCLE('',#340,3.);
#342=EDGE_CURVE('',#336,#326,#341,.T.);
#343=ORIENTED_EDGE('',*,*,#342,.F.);
#344=CARTESIAN_POINT('',(-3.324923627,0.,29.815178733));
#345=DIRECTION('',(0.,-1.,0.));
#346=DIRECTION('',(0.,0.,-1.));
#347=AXIS2_PLACEMENT_3D('',#344,#345,#346);
#348=CIRCLE('',#347,3.);
#349=EDGE_CURVE('',#326,#336,#348,.T.);
#350=ORIENTED_EDGE('',*,*,#349,.F.);
#351=ORIENTED_EDGE('',*,*,#333,.T.);
#352=CARTESIAN_POINT('',(-3.324923627,-10.,26.815178733));
#353=VERTEX_POINT('',#352);
#354=CARTESIAN_POINT('',(-3.324923627,-10.,29.815178733));
#355=DIRECTION('',(0.,-1.,0.));
#356=DIRECTION('',(0.,0.,-1.));
#357=AXIS2_PLACEMENT_3D('',#354,#355,#356);
#358=CIRCLE('',#357,3.);
#359=EDGE_CURVE('',#328,#353,#358,.T.);
#360=ORIENTED_EDGE('',*,*,#359,.T.);
#361=CARTESIAN_POINT('',(-3.324923627,-10.,29.815178733));
#362=DIRECTION('',(0.,-1.,0.));
#363=DIRECTION('',(0.,0.,-1.));
#364=AXIS2_PLACEMENT_3D('',#361,#362,#363);
#365=CIRCLE('',#364,3.);
#366=EDGE_CURVE('',#353,#328,#365,.T.);
#367=ORIENTED_EDGE('',*,*,#366,.T.);
#368=EDGE_LOOP('',(#334,#343,#350,#351,#360,#367));
#369=FACE_BOUND('',#368,.T.);
#370=ADVANCED_FACE('',(#369),#324,.F.);
#371=CARTESIAN_POINT('',(0.,-10.,0.));
#372=DIRECTION('',(0.,1.,0.));
#373=DIRECTION('',(0.,-0.,1.));
#374=AXIS2_PLACEMENT_3D('',#371,#372,#373);
#375=CYLINDRICAL_SURFACE('',#374,23.);
#376=CARTESIAN_POINT('',(0.,0.,23.));
#377=VERTEX_POINT('',#376);
#378=CARTESIAN_POINT('',(0.,-10.,23.));
#379=VERTEX_POINT('',#378);
#380=CARTESIAN_POINT('',(0.,-0.,23.));
#381=DIRECTION('',(-0.,-1.,-0.));
#382=VECTOR('',#381,10.);
#383=LINE('',#380,#382);
#384=EDGE_CURVE('',#377,#379,#383,.T.);
#385=ORIENTED_EDGE('',*,*,#384,.F.);
#386=CARTESIAN_POINT('',(-0.,0.,-23.));
#387=VERTEX_POINT('',#386);
#388=CARTESIAN_POINT('',(0.,0.,0.));
#389=DIRECTION('',(0.,-1.,0.));
#390=DIRECTION('',(0.,0.,-1.));
#391=AXIS2_PLACEMENT_3D('',#388,#389,#390);
#392=CIRCLE('',#391,23.);
#393=EDGE_CURVE('',#387,#377,#392,.T.);
#394=ORIENTED_EDGE('',*,*,#393,.F.);
#395=CARTESIAN_POINT('',(0.,0.,0.));
#396=DIRECTION('',(0.,-1.,0.));
#397=DIRECTION('',(0.,0.,-1.));
#398=AXIS2_PLACEMENT_3D('',#395,#396,#397);
#399=CIRCLE('',#398,23.);
#400=EDGE_CURVE('',#377,#387,#399,.T.);
#401=ORIENTED_EDGE('',*,*,#400,.F.);
#402=ORIENTED_EDGE('',*,*,#384,.T.);
#403=CARTESIAN_POINT('',(-0.,-10.,-23.));
#404=VERTEX_POINT('',#403);
#405=CARTESIAN_POINT('',(0.,-10.,0.));
#406=DIRECTION('',(0.,-1.,0.));
#407=DIRECTION('',(0.,0.,-1.));
#408=AXIS2_PLACEMENT_3D('',#405,#406,#407);
#409=CIRCLE('',#408,23.);
#410=EDGE_CURVE('',#379,#404,#409,.T.);
#411=ORIENTED_EDGE('',*,*,#410,.T.);
#412=CARTESIAN_POINT('',(0.,-10.,0.));
#413=DIRECTION('',(0.,-1.,0.));
#414=DIRECTION('',(0.,0.,-1.));
#415=AXIS2_PLACEMENT_3D('',#412,#413,#414);
#416=CIRCLE('',#415,23.);
#417=EDGE_CURVE('',#404,#379,#416,.T.);
#418=ORIENTED_EDGE('',*,*,#417,.T.);
#419=EDGE_LOOP('',(#385,#394,#401,#402,#411,#418));
#420=FACE_BOUND('',#419,.T.);
#421=ADVANCED_FACE('',(#420),#375,.F.);
#422=CARTESIAN_POINT('',(0.,-10.,0.));
#423=DIRECTION('',(0.,-1.,0.));
#424=DIRECTION('',(0.,0.,-1.));
#425=AXIS2_PLACEMENT_3D('',#422,#423,#424);
#426=PLANE('',#425);
#427=ORIENTED_EDGE('',*,*,#359,.F.);
#428=ORIENTED_EDGE('',*,*,#366,.F.);
#429=EDGE_LOOP('',(#427,#428));
#430=FACE_BOUND('',#429,.T.);
#431=ORIENTED_EDGE('',*,*,#308,.F.);
#432=ORIENTED_EDGE('',*,*,#315,.F.);
#433=EDGE_LOOP('',(#431,#432));
#434=FACE_BOUND('',#433,.T.);
#435=ORIENTED_EDGE('',*,*,#240,.T.);
#436=ORIENTED_EDGE('',*,*,#247,.T.);
#437=EDGE_LOOP('',(#435,#436));
#438=FACE_BOUND('',#437,.T.);
#439=ORIENTED_EDGE('',*,*,#206,.F.);
#440=ORIENTED_EDGE('',*,*,#213,.F.);
#441=EDGE_LOOP('',(#439,#440));
#442=FACE_BOUND('',#441,.T.);
#443=ORIENTED_EDGE('',*,*,#410,.F.);
#444=ORIENTED_EDGE('',*,*,#417,.F.);
#445=EDGE_LOOP('',(#443,#444));
#446=FACE_BOUND('',#445,.T.);
#447=ADVANCED_FACE('',(#430,#434,#438,#442,#446),#426,.T.);
#448=CARTESIAN_POINT('',(0.,0.,0.));
#449=DIRECTION('',(0.,-1.,0.));
#450=DIRECTION('',(0.,0.,-1.));
#451=AXIS2_PLACEMENT_3D('',#448,#449,#450);
#452=PLANE('',#451);
#453=ORIENTED_EDGE('',*,*,#342,.T.);
#454=ORIENTED_EDGE('',*,*,#349,.T.);
#455=EDGE_LOOP('',(#453,#454));
#456=FACE_BOUND('',#455,.T.);
#457=ORIENTED_EDGE('',*,*,#291,.T.);
#458=ORIENTED_EDGE('',*,*,#298,.T.);
#459=EDGE_LOOP('',(#457,#458));
#460=FACE_BOUND('',#459,.T.);
#461=ORIENTED_EDGE('',*,*,#257,.F.);
#462=ORIENTED_EDGE('',*,*,#264,.F.);
#463=EDGE_LOOP('',(#461,#462));
#464=FACE_BOUND('',#463,.T.);
#465=ORIENTED_EDGE('',*,*,#189,.T.);
#466=ORIENTED_EDGE('',*,*,#196,.T.);
#467=EDGE_LOOP('',(#465,#466));
#468=FACE_BOUND('',#467,.T.);
#469=ORIENTED_EDGE('',*,*,#393,.T.);
#470=ORIENTED_EDGE('',*,*,#400,.T.);
#471=EDGE_LOOP('',(#469,#470));
#472=FACE_BOUND('',#471,.T.);
#473=ADVANCED_FACE('',(#456,#460,#464,#468,#472),#452,.F.);
#474=CLOSED_SHELL('',(#217,#268,#319,#370,#421,#447,#473));
#475=MANIFOLD_SOLID_BREP('Corps 01',#474);
#166=STYLED_ITEM('',(#165),#475);
#16=SHAPE_REPRESENTATION('root',(#15),#10);
#17=ADVANCED_BREP_SHAPE_REPRESENTATION('root',(#158,#475),#10);
#483=SHAPE_REPRESENTATION_RELATIONSHIP('','',#16,#17);
#484=APPLICATION_CONTEXT('data for automotive mechanical design processes');
#485=APPLICATION_PROTOCOL_DEFINITION('international standard','automotive_design',1994,#484);
#486=PRODUCT_CONTEXT('',#484,'mechanical');
#487=PRODUCT_DEFINITION_CONTEXT('part definition',#484,'design');
#24=PRODUCT('root','root','',(#486));
#488=PRODUCT_RELATED_PRODUCT_CATEGORY('part','',(#24));
#489=PRODUCT_DEFINITION_FORMATION_WITH_SPECIFIED_SOURCE('','',#24,.NOT_KNOWN.);
#25=PRODUCT_DEFINITION('design','',#489,#487);
#23=PRODUCT_DEFINITION_SHAPE('','',#25);
#490=SHAPE_DEFINITION_REPRESENTATION(#23,#16);
#11=DRAUGHTING_MODEL('',(),#10);
#1=MECHANICAL_DESIGN_GEOMETRIC_PRESENTATION_REPRESENTATION('',(#26,#166),#10);
ENDSEC;
END-ISO-10303-21;
