ISO-10303-21;
HEADER;
/* Generated by software containing ST-Developer
 * from STEP Tools, Inc. (www.steptools.com) 
 */
/* OPTION: strings as raw bytes, not using required /X/ escapes */

FILE_DESCRIPTION(
/* description */ ('Unknown'),
/* implementation_level */ '2;1');

FILE_NAME(
/* name */ 'D0284-DD-21289 Renfort tête 3mm ',
/* time_stamp */ '2023-10-18T10:08:23+02:00',
/* author */ ('Unknown'),
/* organization */ ('Unknown'),
/* preprocessor_version */ 'ST-DEVELOPER v18.102',
/* originating_system */ 'Solid Edge',
/* authorisation */ 'Unknown');

FILE_SCHEMA (('AUTOMOTIVE_DESIGN {1 0 10303 214 3 1 1}'));
ENDSEC;

DATA;
#10=PROPERTY_DEFINITION_REPRESENTATION(#14,#12);
#11=PROPERTY_DEFINITION_REPRESENTATION(#15,#13);
#12=REPRESENTATION('',(#16),#443);
#13=REPRESENTATION('',(#17),#443);
#14=PROPERTY_DEFINITION('pmi validation property','',#448);
#15=PROPERTY_DEFINITION('pmi validation property','',#448);
#16=VALUE_REPRESENTATION_ITEM('number of annotations',COUNT_MEASURE(0.));
#17=VALUE_REPRESENTATION_ITEM('number of views',COUNT_MEASURE(0.));
#18=SHAPE_REPRESENTATION_RELATIONSHIP('','',#256,#19);
#19=ADVANCED_BREP_SHAPE_REPRESENTATION('',(#254),#443);
#20=CONICAL_SURFACE('',#285,1.565,0.785398163397448);
#21=TOROIDAL_SURFACE('',#278,2.1,0.3);
#22=TOROIDAL_SURFACE('',#286,1.7,0.1);
#23=LINE('',#386,#35);
#24=LINE('',#390,#36);
#25=LINE('',#392,#37);
#26=LINE('',#405,#38);
#27=LINE('',#414,#39);
#28=LINE('',#415,#40);
#29=LINE('',#427,#41);
#30=LINE('',#428,#42);
#31=LINE('',#430,#43);
#32=LINE('',#432,#44);
#33=LINE('',#434,#45);
#34=LINE('',#436,#46);
#35=VECTOR('',#305,1000.);
#36=VECTOR('',#308,1000.);
#37=VECTOR('',#311,1000.);
#38=VECTOR('',#312,1000.);
#39=VECTOR('',#321,1000.);
#40=VECTOR('',#322,1000.);
#41=VECTOR('',#339,1000.);
#42=VECTOR('',#340,1000.);
#43=VECTOR('',#343,1000.);
#44=VECTOR('',#344,1000.);
#45=VECTOR('',#347,1000.);
#46=VECTOR('',#348,1000.);
#47=B_SPLINE_CURVE_WITH_KNOTS('',3,(#373,#374,#375,#376,#377,#378,#379,
#380,#381,#382,#383),.UNSPECIFIED.,.F.,.F.,(4,1,1,1,1,1,1,1,4),(0.00122395415594553,
0.0018497362470094,0.00247551833807326,0.00310130042913713,0.00372708252020099,
0.00435286461126485,0.00497864670232872,0.00560442879339258,0.00623021088445645),
 .UNSPECIFIED.);
#48=B_SPLINE_CURVE_WITH_KNOTS('',3,(#395,#396,#397,#398,#399,#400,#401,
#402,#403),.UNSPECIFIED.,.F.,.F.,(4,1,1,1,1,1,4),(0.,0.00120962901947782,
0.00181444352921673,0.00241925803895564,0.00302407254869455,0.00362888705843346,
0.00483851607791128),.UNSPECIFIED.);
#49=PLANE('',#261);
#50=PLANE('',#270);
#51=PLANE('',#272);
#52=PLANE('',#276);
#53=PLANE('',#280);
#54=PLANE('',#281);
#55=PLANE('',#284);
#56=ORIENTED_EDGE('',*,*,#110,.T.);
#57=ORIENTED_EDGE('',*,*,#111,.F.);
#58=ORIENTED_EDGE('',*,*,#112,.T.);
#59=ORIENTED_EDGE('',*,*,#113,.T.);
#60=ORIENTED_EDGE('',*,*,#114,.T.);
#61=ORIENTED_EDGE('',*,*,#115,.T.);
#62=ORIENTED_EDGE('',*,*,#116,.T.);
#63=ORIENTED_EDGE('',*,*,#117,.T.);
#64=ORIENTED_EDGE('',*,*,#118,.T.);
#65=ORIENTED_EDGE('',*,*,#119,.F.);
#66=ORIENTED_EDGE('',*,*,#120,.F.);
#67=ORIENTED_EDGE('',*,*,#121,.F.);
#68=ORIENTED_EDGE('',*,*,#122,.F.);
#69=ORIENTED_EDGE('',*,*,#123,.T.);
#70=ORIENTED_EDGE('',*,*,#124,.F.);
#71=ORIENTED_EDGE('',*,*,#125,.F.);
#72=ORIENTED_EDGE('',*,*,#122,.T.);
#73=ORIENTED_EDGE('',*,*,#126,.T.);
#74=ORIENTED_EDGE('',*,*,#127,.F.);
#75=ORIENTED_EDGE('',*,*,#111,.T.);
#76=ORIENTED_EDGE('',*,*,#128,.T.);
#77=ORIENTED_EDGE('',*,*,#127,.T.);
#78=ORIENTED_EDGE('',*,*,#129,.T.);
#79=ORIENTED_EDGE('',*,*,#123,.F.);
#80=ORIENTED_EDGE('',*,*,#128,.F.);
#81=ORIENTED_EDGE('',*,*,#129,.F.);
#82=ORIENTED_EDGE('',*,*,#120,.T.);
#83=ORIENTED_EDGE('',*,*,#130,.T.);
#84=ORIENTED_EDGE('',*,*,#115,.F.);
#85=ORIENTED_EDGE('',*,*,#131,.F.);
#86=ORIENTED_EDGE('',*,*,#126,.F.);
#87=ORIENTED_EDGE('',*,*,#121,.T.);
#88=ORIENTED_EDGE('',*,*,#131,.T.);
#89=ORIENTED_EDGE('',*,*,#118,.F.);
#90=ORIENTED_EDGE('',*,*,#132,.F.);
#91=ORIENTED_EDGE('',*,*,#133,.T.);
#92=ORIENTED_EDGE('',*,*,#130,.F.);
#93=ORIENTED_EDGE('',*,*,#119,.T.);
#94=ORIENTED_EDGE('',*,*,#125,.T.);
#95=ORIENTED_EDGE('',*,*,#134,.F.);
#96=ORIENTED_EDGE('',*,*,#135,.T.);
#97=ORIENTED_EDGE('',*,*,#116,.F.);
#98=ORIENTED_EDGE('',*,*,#124,.T.);
#99=ORIENTED_EDGE('',*,*,#133,.F.);
#100=ORIENTED_EDGE('',*,*,#136,.F.);
#101=ORIENTED_EDGE('',*,*,#134,.T.);
#102=ORIENTED_EDGE('',*,*,#135,.F.);
#103=ORIENTED_EDGE('',*,*,#136,.T.);
#104=ORIENTED_EDGE('',*,*,#132,.T.);
#105=ORIENTED_EDGE('',*,*,#117,.F.);
#106=ORIENTED_EDGE('',*,*,#110,.F.);
#107=ORIENTED_EDGE('',*,*,#113,.F.);
#108=ORIENTED_EDGE('',*,*,#112,.F.);
#109=ORIENTED_EDGE('',*,*,#114,.F.);
#110=EDGE_CURVE('',#137,#137,#158,.T.);
#111=EDGE_CURVE('',#138,#138,#159,.T.);
#112=EDGE_CURVE('',#139,#139,#160,.T.);
#113=EDGE_CURVE('',#140,#140,#161,.F.);
#114=EDGE_CURVE('',#141,#141,#162,.F.);
#115=EDGE_CURVE('',#142,#143,#47,.F.);
#116=EDGE_CURVE('',#143,#144,#23,.T.);
#117=EDGE_CURVE('',#144,#145,#163,.T.);
#118=EDGE_CURVE('',#145,#142,#24,.F.);
#119=EDGE_CURVE('',#146,#147,#25,.T.);
#120=EDGE_CURVE('',#148,#146,#48,.T.);
#121=EDGE_CURVE('',#149,#148,#26,.F.);
#122=EDGE_CURVE('',#147,#149,#164,.T.);
#123=EDGE_CURVE('',#150,#150,#165,.T.);
#124=EDGE_CURVE('',#151,#152,#166,.T.);
#125=EDGE_CURVE('',#147,#151,#27,.T.);
#126=EDGE_CURVE('',#149,#152,#28,.T.);
#127=EDGE_CURVE('',#153,#153,#167,.T.);
#128=EDGE_CURVE('',#154,#154,#168,.F.);
#129=EDGE_CURVE('',#155,#155,#169,.T.);
#130=EDGE_CURVE('',#146,#143,#29,.T.);
#131=EDGE_CURVE('',#148,#142,#30,.T.);
#132=EDGE_CURVE('',#156,#145,#31,.T.);
#133=EDGE_CURVE('',#156,#152,#32,.T.);
#134=EDGE_CURVE('',#157,#151,#33,.T.);
#135=EDGE_CURVE('',#157,#144,#34,.F.);
#136=EDGE_CURVE('',#157,#156,#170,.T.);
#137=VERTEX_POINT('',#362);
#138=VERTEX_POINT('',#364);
#139=VERTEX_POINT('',#367);
#140=VERTEX_POINT('',#369);
#141=VERTEX_POINT('',#372);
#142=VERTEX_POINT('',#384);
#143=VERTEX_POINT('',#385);
#144=VERTEX_POINT('',#387);
#145=VERTEX_POINT('',#389);
#146=VERTEX_POINT('',#393);
#147=VERTEX_POINT('',#394);
#148=VERTEX_POINT('',#404);
#149=VERTEX_POINT('',#406);
#150=VERTEX_POINT('',#409);
#151=VERTEX_POINT('',#412);
#152=VERTEX_POINT('',#413);
#153=VERTEX_POINT('',#418);
#154=VERTEX_POINT('',#421);
#155=VERTEX_POINT('',#424);
#156=VERTEX_POINT('',#431);
#157=VERTEX_POINT('',#435);
#158=CIRCLE('',#259,1.265);
#159=CIRCLE('',#260,1.265);
#160=CIRCLE('',#262,1.7);
#161=CIRCLE('',#263,1.565);
#162=CIRCLE('',#265,1.8);
#163=CIRCLE('',#266,1.8);
#164=CIRCLE('',#268,2.3);
#165=CIRCLE('',#269,2.3);
#166=CIRCLE('',#271,2.1);
#167=CIRCLE('',#273,1.8);
#168=CIRCLE('',#275,1.8);
#169=CIRCLE('',#277,2.1);
#170=CIRCLE('',#283,2.1);
#171=EDGE_LOOP('',(#56));
#172=EDGE_LOOP('',(#57));
#173=EDGE_LOOP('',(#58));
#174=EDGE_LOOP('',(#59));
#175=EDGE_LOOP('',(#60));
#176=EDGE_LOOP('',(#61,#62,#63,#64));
#177=EDGE_LOOP('',(#65,#66,#67,#68));
#178=EDGE_LOOP('',(#69));
#179=EDGE_LOOP('',(#70,#71,#72,#73));
#180=EDGE_LOOP('',(#74));
#181=EDGE_LOOP('',(#75));
#182=EDGE_LOOP('',(#76));
#183=EDGE_LOOP('',(#77));
#184=EDGE_LOOP('',(#78));
#185=EDGE_LOOP('',(#79));
#186=EDGE_LOOP('',(#80));
#187=EDGE_LOOP('',(#81));
#188=EDGE_LOOP('',(#82,#83,#84,#85));
#189=EDGE_LOOP('',(#86,#87,#88,#89,#90,#91));
#190=EDGE_LOOP('',(#92,#93,#94,#95,#96,#97));
#191=EDGE_LOOP('',(#98,#99,#100,#101));
#192=EDGE_LOOP('',(#102,#103,#104,#105));
#193=EDGE_LOOP('',(#106));
#194=EDGE_LOOP('',(#107));
#195=EDGE_LOOP('',(#108));
#196=EDGE_LOOP('',(#109));
#197=FACE_BOUND('',#171,.T.);
#198=FACE_BOUND('',#172,.T.);
#199=FACE_BOUND('',#173,.T.);
#200=FACE_BOUND('',#174,.T.);
#201=FACE_BOUND('',#175,.T.);
#202=FACE_BOUND('',#176,.T.);
#203=FACE_BOUND('',#177,.T.);
#204=FACE_BOUND('',#178,.T.);
#205=FACE_BOUND('',#179,.T.);
#206=FACE_BOUND('',#180,.T.);
#207=FACE_BOUND('',#181,.T.);
#208=FACE_BOUND('',#182,.T.);
#209=FACE_BOUND('',#183,.T.);
#210=FACE_BOUND('',#184,.T.);
#211=FACE_BOUND('',#185,.T.);
#212=FACE_BOUND('',#186,.T.);
#213=FACE_BOUND('',#187,.T.);
#214=FACE_BOUND('',#188,.T.);
#215=FACE_BOUND('',#189,.T.);
#216=FACE_BOUND('',#190,.T.);
#217=FACE_BOUND('',#191,.T.);
#218=FACE_BOUND('',#192,.T.);
#219=FACE_BOUND('',#193,.T.);
#220=FACE_BOUND('',#194,.T.);
#221=FACE_BOUND('',#195,.T.);
#222=FACE_BOUND('',#196,.T.);
#223=CYLINDRICAL_SURFACE('',#258,1.265);
#224=CYLINDRICAL_SURFACE('',#264,1.8);
#225=CYLINDRICAL_SURFACE('',#267,2.3);
#226=CYLINDRICAL_SURFACE('',#274,1.8);
#227=CYLINDRICAL_SURFACE('',#279,1.5);
#228=CYLINDRICAL_SURFACE('',#282,2.1);
#229=ADVANCED_FACE('',(#197,#198),#223,.F.);
#230=ADVANCED_FACE('',(#199,#200),#49,.T.);
#231=ADVANCED_FACE('',(#201,#202),#224,.F.);
#232=ADVANCED_FACE('',(#203,#204),#225,.T.);
#233=ADVANCED_FACE('',(#205),#50,.T.);
#234=ADVANCED_FACE('',(#206,#207),#51,.F.);
#235=ADVANCED_FACE('',(#208,#209),#226,.T.);
#236=ADVANCED_FACE('',(#210,#211),#52,.F.);
#237=ADVANCED_FACE('',(#212,#213),#21,.F.);
#238=ADVANCED_FACE('',(#214),#227,.F.);
#239=ADVANCED_FACE('',(#215),#53,.F.);
#240=ADVANCED_FACE('',(#216),#54,.F.);
#241=ADVANCED_FACE('',(#217),#228,.T.);
#242=ADVANCED_FACE('',(#218),#55,.T.);
#243=ADVANCED_FACE('',(#219,#220),#20,.F.);
#244=ADVANCED_FACE('',(#221,#222),#22,.F.);
#245=CLOSED_SHELL('',(#229,#230,#231,#232,#233,#234,#235,#236,#237,#238,
#239,#240,#241,#242,#243,#244));
#246=STYLED_ITEM('',(#247),#254);
#247=PRESENTATION_STYLE_ASSIGNMENT((#248));
#248=SURFACE_STYLE_USAGE(.BOTH.,#249);
#249=SURFACE_SIDE_STYLE('',(#250));
#250=SURFACE_STYLE_FILL_AREA(#251);
#251=FILL_AREA_STYLE('',(#252));
#252=FILL_AREA_STYLE_COLOUR('',#253);
#253=COLOUR_RGB('',0.331739127635956,0.340869575738907,0.349999994039536);
#254=MANIFOLD_SOLID_BREP('',#245);
#255=SHAPE_DEFINITION_REPRESENTATION(#448,#256);
#256=SHAPE_REPRESENTATION('renfort tete 3mm',(#257),#443);
#257=AXIS2_PLACEMENT_3D('',#359,#287,#288);
#258=AXIS2_PLACEMENT_3D('',#360,#289,#290);
#259=AXIS2_PLACEMENT_3D('',#361,#291,#292);
#260=AXIS2_PLACEMENT_3D('',#363,#293,#294);
#261=AXIS2_PLACEMENT_3D('',#365,#295,#296);
#262=AXIS2_PLACEMENT_3D('',#366,#297,#298);
#263=AXIS2_PLACEMENT_3D('',#368,#299,#300);
#264=AXIS2_PLACEMENT_3D('',#370,#301,#302);
#265=AXIS2_PLACEMENT_3D('',#371,#303,#304);
#266=AXIS2_PLACEMENT_3D('',#388,#306,#307);
#267=AXIS2_PLACEMENT_3D('',#391,#309,#310);
#268=AXIS2_PLACEMENT_3D('',#407,#313,#314);
#269=AXIS2_PLACEMENT_3D('',#408,#315,#316);
#270=AXIS2_PLACEMENT_3D('',#410,#317,#318);
#271=AXIS2_PLACEMENT_3D('',#411,#319,#320);
#272=AXIS2_PLACEMENT_3D('',#416,#323,#324);
#273=AXIS2_PLACEMENT_3D('',#417,#325,#326);
#274=AXIS2_PLACEMENT_3D('',#419,#327,#328);
#275=AXIS2_PLACEMENT_3D('',#420,#329,#330);
#276=AXIS2_PLACEMENT_3D('',#422,#331,#332);
#277=AXIS2_PLACEMENT_3D('',#423,#333,#334);
#278=AXIS2_PLACEMENT_3D('',#425,#335,#336);
#279=AXIS2_PLACEMENT_3D('',#426,#337,#338);
#280=AXIS2_PLACEMENT_3D('',#429,#341,#342);
#281=AXIS2_PLACEMENT_3D('',#433,#345,#346);
#282=AXIS2_PLACEMENT_3D('',#437,#349,#350);
#283=AXIS2_PLACEMENT_3D('',#438,#351,#352);
#284=AXIS2_PLACEMENT_3D('',#439,#353,#354);
#285=AXIS2_PLACEMENT_3D('',#440,#355,#356);
#286=AXIS2_PLACEMENT_3D('',#441,#357,#358);
#287=DIRECTION('',(0.,0.,1.));
#288=DIRECTION('',(1.,0.,0.));
#289=DIRECTION('',(0.,0.,-1.));
#290=DIRECTION('',(-1.,0.,0.));
#291=DIRECTION('',(0.,0.,-1.));
#292=DIRECTION('',(-1.,0.,0.));
#293=DIRECTION('',(0.,0.,-1.));
#294=DIRECTION('',(-1.,0.,0.));
#295=DIRECTION('',(0.,0.,-1.));
#296=DIRECTION('',(-1.,0.,0.));
#297=DIRECTION('',(0.,0.,-1.));
#298=DIRECTION('',(-1.,0.,0.));
#299=DIRECTION('',(0.,0.,-1.));
#300=DIRECTION('',(-1.,0.,0.));
#301=DIRECTION('',(0.,0.,-1.));
#302=DIRECTION('',(-1.,0.,0.));
#303=DIRECTION('',(0.,0.,-1.));
#304=DIRECTION('',(-1.,0.,0.));
#305=DIRECTION('',(0.,0.,-1.));
#306=DIRECTION('',(0.,0.,-1.));
#307=DIRECTION('',(-1.,0.,0.));
#308=DIRECTION('',(0.,0.,-1.));
#309=DIRECTION('',(0.,0.,-1.));
#310=DIRECTION('',(-1.,0.,0.));
#311=DIRECTION('',(0.,0.,-1.));
#312=DIRECTION('',(0.,0.,-1.));
#313=DIRECTION('',(0.,0.,-1.));
#314=DIRECTION('',(-1.,0.,0.));
#315=DIRECTION('',(0.,0.,-1.));
#316=DIRECTION('',(-1.,0.,0.));
#317=DIRECTION('',(0.,0.,-1.));
#318=DIRECTION('',(-1.,0.,0.));
#319=DIRECTION('',(0.,0.,-1.));
#320=DIRECTION('',(-1.,0.,0.));
#321=DIRECTION('',(0.,1.,0.));
#322=DIRECTION('',(0.,1.,0.));
#323=DIRECTION('',(0.,0.,-1.));
#324=DIRECTION('',(-1.,0.,0.));
#325=DIRECTION('',(0.,0.,-1.));
#326=DIRECTION('',(-1.,0.,0.));
#327=DIRECTION('',(0.,0.,-1.));
#328=DIRECTION('',(-1.,0.,0.));
#329=DIRECTION('',(0.,0.,-1.));
#330=DIRECTION('',(-1.,0.,0.));
#331=DIRECTION('',(0.,0.,-1.));
#332=DIRECTION('',(-1.,0.,0.));
#333=DIRECTION('',(0.,0.,-1.));
#334=DIRECTION('',(-1.,0.,0.));
#335=DIRECTION('',(0.,0.,-1.));
#336=DIRECTION('',(-1.,0.,0.));
#337=DIRECTION('',(0.,1.,0.));
#338=DIRECTION('',(0.,0.,1.));
#339=DIRECTION('',(0.,1.,0.));
#340=DIRECTION('',(0.,1.,0.));
#341=DIRECTION('',(1.,0.,0.));
#342=DIRECTION('',(0.,0.,-1.));
#343=DIRECTION('',(0.,1.,0.));
#344=DIRECTION('',(0.,0.,1.));
#345=DIRECTION('',(-1.,0.,0.));
#346=DIRECTION('',(0.,0.,1.));
#347=DIRECTION('',(0.,0.,1.));
#348=DIRECTION('',(0.,-1.,0.));
#349=DIRECTION('',(0.,0.,1.));
#350=DIRECTION('',(1.,0.,0.));
#351=DIRECTION('',(0.,0.,-1.));
#352=DIRECTION('',(-1.,0.,0.));
#353=DIRECTION('',(0.,0.,-1.));
#354=DIRECTION('',(-1.,0.,0.));
#355=DIRECTION('',(0.,0.,-1.));
#356=DIRECTION('',(-1.,0.,0.));
#357=DIRECTION('',(0.,0.,-1.));
#358=DIRECTION('',(-1.,0.,0.));
#359=CARTESIAN_POINT('',(0.,0.,0.));
#360=CARTESIAN_POINT('',(0.,0.,9.));
#361=CARTESIAN_POINT('',(0.,0.,6.5));
#362=CARTESIAN_POINT('',(-1.265,0.,6.5));
#363=CARTESIAN_POINT('',(0.,0.,9.));
#364=CARTESIAN_POINT('',(-1.265,0.,9.));
#365=CARTESIAN_POINT('',(0.,0.,6.2));
#366=CARTESIAN_POINT('',(0.,0.,6.2));
#367=CARTESIAN_POINT('',(-1.7,0.,6.2));
#368=CARTESIAN_POINT('',(0.,0.,6.2));
#369=CARTESIAN_POINT('',(-1.565,0.,6.2));
#370=CARTESIAN_POINT('',(0.,0.,9.));
#371=CARTESIAN_POINT('',(0.,0.,6.1));
#372=CARTESIAN_POINT('',(-1.8,0.,6.1));
#373=CARTESIAN_POINT('',(-1.5,-0.994987437106618,3.11084565321479));
#374=CARTESIAN_POINT('',(-1.5,-0.994987437106612,3.32229190669538));
#375=CARTESIAN_POINT('',(-1.40844644815716,-1.13978243684746,3.7231587262038));
#376=CARTESIAN_POINT('',(-1.10022101039586,-1.45262843800359,4.1783537366918));
#377=CARTESIAN_POINT('',(-0.628138592561459,-1.72143903624765,4.51809417712179));
#378=CARTESIAN_POINT('',(-0.0010150252841855,-1.83906691048096,4.65694736499553));
#379=CARTESIAN_POINT('',(0.6259859601307,-1.72229153488119,4.51918813784817));
#380=CARTESIAN_POINT('',(1.09971023568747,-1.4531711688996,4.17885797492176));
#381=CARTESIAN_POINT('',(1.40829045072954,-1.13998783063782,3.72449877472045));
#382=CARTESIAN_POINT('',(1.50000000000001,-0.99498743710661,3.3204817877135));
#383=CARTESIAN_POINT('',(1.5,-0.994987437106618,3.11084565321478));
#384=CARTESIAN_POINT('',(1.50000000000001,-0.994987437106597,3.11084565321478));
#385=CARTESIAN_POINT('',(-1.50000000000004,-0.994987437106564,3.11084565321478));
#386=CARTESIAN_POINT('',(-1.50000000000004,-0.994987437106564,2.35542282660739));
#387=CARTESIAN_POINT('',(-1.50000000000004,-0.994987437106564,1.1));
#388=CARTESIAN_POINT('',(0.,0.,1.1));
#389=CARTESIAN_POINT('',(1.50000000000001,-0.994987437106597,1.1));
#390=CARTESIAN_POINT('',(1.50000000000001,-0.994987437106597,9.));
#391=CARTESIAN_POINT('',(0.,0.,6.));
#392=CARTESIAN_POINT('',(-1.50000000000004,-1.74355957741624,2.35542282660739));
#393=CARTESIAN_POINT('',(-1.50000000000004,-1.74355957741624,3.11084565321478));
#394=CARTESIAN_POINT('',(-1.50000000000004,-1.74355957741624,1.6));
#395=CARTESIAN_POINT('',(1.50000000000001,-1.74355957741626,3.11084565321478));
#396=CARTESIAN_POINT('',(1.50000000000002,-1.74355957741625,3.52137046738802));
#397=CARTESIAN_POINT('',(1.24918182535399,-1.97657513845437,4.08471409266087));
#398=CARTESIAN_POINT('',(0.608700894426412,-2.2424968219739,4.52415661209284));
#399=CARTESIAN_POINT('',(0.00362752600004054,-2.32850111429702,4.65377584429023));
#400=CARTESIAN_POINT('',(-0.606858538143016,-2.24348903232169,4.52579907430307));
#401=CARTESIAN_POINT('',(-1.25033509731732,-1.97595485265495,4.08346518977056));
#402=CARTESIAN_POINT('',(-1.50000000000002,-1.74355957741626,3.5224469857884));
#403=CARTESIAN_POINT('',(-1.5,-1.74355957741627,3.11084565321476));
#404=CARTESIAN_POINT('',(1.50000000000001,-1.74355957741626,3.11084565321478));
#405=CARTESIAN_POINT('',(1.50000000000001,-1.74355957741626,2.35542282660739));
#406=CARTESIAN_POINT('',(1.50000000000001,-1.74355957741626,1.6));
#407=CARTESIAN_POINT('',(0.,0.,1.6));
#408=CARTESIAN_POINT('',(0.,0.,8.));
#409=CARTESIAN_POINT('',(-2.3,0.,8.));
#410=CARTESIAN_POINT('',(0.,0.,1.6));
#411=CARTESIAN_POINT('',(0.,0.,1.6));
#412=CARTESIAN_POINT('',(-1.50000000000004,-1.46969384566987,1.6));
#413=CARTESIAN_POINT('',(1.50000000000001,-1.46969384566989,1.6));
#414=CARTESIAN_POINT('',(-1.50000000000004,-4.08656867893509,1.6));
#415=CARTESIAN_POINT('',(1.50000000000001,-4.08656867893509,1.6));
#416=CARTESIAN_POINT('',(0.,0.,9.));
#417=CARTESIAN_POINT('',(0.,0.,9.));
#418=CARTESIAN_POINT('',(-1.8,0.,9.));
#419=CARTESIAN_POINT('',(0.,0.,9.));
#420=CARTESIAN_POINT('',(0.,0.,8.3));
#421=CARTESIAN_POINT('',(-1.8,0.,8.3));
#422=CARTESIAN_POINT('',(0.,0.,8.));
#423=CARTESIAN_POINT('',(0.,0.,8.));
#424=CARTESIAN_POINT('',(-2.1,0.,8.));
#425=CARTESIAN_POINT('',(0.,0.,8.3));
#426=CARTESIAN_POINT('',(0.,-7.98624706484343,3.11084565321482));
#427=CARTESIAN_POINT('',(-1.50000000000004,-4.08656867893509,3.11084565321478));
#428=CARTESIAN_POINT('',(1.50000000000001,-4.08656867893509,3.11084565321478));
#429=CARTESIAN_POINT('',(1.50000000000001,-4.08656867893509,3.11084565321478));
#430=CARTESIAN_POINT('',(1.50000000000001,-4.08656867893509,1.1));
#431=CARTESIAN_POINT('',(1.50000000000001,-1.46969384566989,1.1));
#432=CARTESIAN_POINT('',(1.50000000000001,-1.46969384566989,1.35));
#433=CARTESIAN_POINT('',(-1.50000000000004,-4.08656867893509,1.6));
#434=CARTESIAN_POINT('',(-1.50000000000004,-1.46969384566987,1.35));
#435=CARTESIAN_POINT('',(-1.50000000000004,-1.46969384566987,1.1));
#436=CARTESIAN_POINT('',(-1.50000000000004,-4.08656867893509,1.1));
#437=CARTESIAN_POINT('',(0.,0.,1.1));
#438=CARTESIAN_POINT('',(0.,0.,1.1));
#439=CARTESIAN_POINT('',(0.,0.,1.1));
#440=CARTESIAN_POINT('',(0.,0.,6.2));
#441=CARTESIAN_POINT('',(0.,0.,6.1));
#442=MECHANICAL_DESIGN_GEOMETRIC_PRESENTATION_REPRESENTATION('',(#246),
#443);
#443=(
GEOMETRIC_REPRESENTATION_CONTEXT(3)
GLOBAL_UNCERTAINTY_ASSIGNED_CONTEXT((#444))
GLOBAL_UNIT_ASSIGNED_CONTEXT((#447,#446,#445))
REPRESENTATION_CONTEXT('renfort tete 3mm','TOP_LEVEL_ASSEMBLY_PART')
);
#444=UNCERTAINTY_MEASURE_WITH_UNIT(LENGTH_MEASURE(0.005),#447,
'DISTANCE_ACCURACY_VALUE','Maximum Tolerance applied to model');
#445=(
NAMED_UNIT(*)
SI_UNIT($,.STERADIAN.)
SOLID_ANGLE_UNIT()
);
#446=(
NAMED_UNIT(*)
PLANE_ANGLE_UNIT()
SI_UNIT($,.RADIAN.)
);
#447=(
LENGTH_UNIT()
NAMED_UNIT(*)
SI_UNIT(.MILLI.,.METRE.)
);
#448=PRODUCT_DEFINITION_SHAPE('','',#449);
#449=PRODUCT_DEFINITION('','',#451,#450);
#450=PRODUCT_DEFINITION_CONTEXT('',#457,'design');
#451=PRODUCT_DEFINITION_FORMATION_WITH_SPECIFIED_SOURCE('','',#453,
 .NOT_KNOWN.);
#452=PRODUCT_RELATED_PRODUCT_CATEGORY('','',(#453));
#453=PRODUCT('renfort tete 3mm','renfort tete 3mm','renfort tete 3mm',(#455));
#454=PRODUCT_CATEGORY('','');
#455=PRODUCT_CONTEXT('',#457,'mechanical');
#456=APPLICATION_PROTOCOL_DEFINITION('international standard',
'automotive_design',2010,#457);
#457=APPLICATION_CONTEXT(
'core data for automotive mechanical design processes');
ENDSEC;
END-ISO-10303-21;
