ISO-10303-21;
HEADER;
FILE_DESCRIPTION(('STEP AP203'),'1');
FILE_NAME('Taquets zeta Droite.step','2023-11-10T11:57:15',(' '),(' '),'Spatial InterOp 3D',' ',' ');
FILE_SCHEMA(('CONFIG_CONTROL_DESIGN'));
ENDSEC;
DATA;
#1=DESIGN_CONTEXT('',#29,'design');
#2=APPLICATION_PROTOCOL_DEFINITION('INTERNATIONAL STANDARD','config_control_design',1994,#29);
#3=PRODUCT_CATEGORY_RELATIONSHIP('NONE','NONE',#30,#31);
#4=DATE_AND_TIME(#32,#33);
#5=DATE_TIME_ROLE('creation_date');
#6=DATE_TIME_ROLE('classification_date');
#7=PERSON_AND_ORGANIZATION_ROLE('creator');
#8=PERSON_AND_ORGANIZATION_ROLE('design_supplier');
#9=PERSON_AND_ORGANIZATION_ROLE('classification_officer');
#10=PERSON_AND_ORGANIZATION_ROLE('design_owner');
#11=APPROVAL_PERSON_ORGANIZATION(#34,#35,#36);
#12=APPROVAL_DATE_TIME(#4,#35);
#13=CC_DESIGN_APPROVAL(#35,(#37,#38,#39));
#14=CC_DESIGN_DATE_AND_TIME_ASSIGNMENT(#4,#5,(#39));
#15=CC_DESIGN_DATE_AND_TIME_ASSIGNMENT(#4,#6,(#37));
#16=CC_DESIGN_PERSON_AND_ORGANIZATION_ASSIGNMENT(#34,#10,(#40));
#17=CC_DESIGN_PERSON_AND_ORGANIZATION_ASSIGNMENT(#34,#7,(#39));
#18=CC_DESIGN_PERSON_AND_ORGANIZATION_ASSIGNMENT(#34,#7,(#38));
#19=CC_DESIGN_PERSON_AND_ORGANIZATION_ASSIGNMENT(#34,#8,(#38));
#20=CC_DESIGN_SECURITY_CLASSIFICATION(#37,(#38));
#21=CC_DESIGN_PERSON_AND_ORGANIZATION_ASSIGNMENT(#34,#9,(#37));
#22=SHAPE_DEFINITION_REPRESENTATION(#41,#42);
#23=SHAPE_DEFINITION_REPRESENTATION(#41,#43);
#24=SHAPE_DEFINITION_REPRESENTATION(#41,#44);
#25= (GEOMETRIC_REPRESENTATION_CONTEXT(3)GLOBAL_UNCERTAINTY_ASSIGNED_CONTEXT((#47))GLOBAL_UNIT_ASSIGNED_CONTEXT((#49,#50,#51))REPRESENTATION_CONTEXT('NONE','WORKSPACE'));
#29=APPLICATION_CONTEXT('CONFIGURATION CONTROLLED 3D DESIGNS OF MECHANICAL PARTS AND ASSEMBLIES');
#30=PRODUCT_CATEGORY('part','NONE');
#31=PRODUCT_RELATED_PRODUCT_CATEGORY('detail',' ',(#40));
#32=CALENDAR_DATE(2023,10,10);
#33=LOCAL_TIME(12,57,15.0,#53);
#34=PERSON_AND_ORGANIZATION(#54,#55);
#35=APPROVAL(#56,'SOLID MODEL');
#36=APPROVAL_ROLE('APPROVED');
#37=SECURITY_CLASSIFICATION('','',#57);
#38=PRODUCT_DEFINITION_FORMATION_WITH_SPECIFIED_SOURCE(' ','NONE',#40,.NOT_KNOWN.);
#39=PRODUCT_DEFINITION('','NONE',#38,#1);
#40=PRODUCT('1','','PART--DESC',(#58));
#41=PRODUCT_DEFINITION_SHAPE('NONE','NONE',#39);
#42=ADVANCED_BREP_SHAPE_REPRESENTATION('1',(#59,#60),#25);
#43=ADVANCED_BREP_SHAPE_REPRESENTATION('2',(#61,#62),#25);
#44=ADVANCED_BREP_SHAPE_REPRESENTATION('3',(#63,#64),#25);
#47=UNCERTAINTY_MEASURE_WITH_UNIT(LENGTH_MEASURE(0.001),#49,'','');
#49= (CONVERSION_BASED_UNIT('MILLIMETRE',#67)LENGTH_UNIT()NAMED_UNIT(#70));
#50= (NAMED_UNIT(#72)PLANE_ANGLE_UNIT()SI_UNIT($,.RADIAN.));
#51= (NAMED_UNIT(#72)SOLID_ANGLE_UNIT()SI_UNIT($,.STERADIAN.));
#53=COORDINATED_UNIVERSAL_TIME_OFFSET(1,0,.AHEAD.);
#54=PERSON('','UNSPECIFIED',$,$,$,$);
#55=ORGANIZATION('UNSPECIFIED','UNSPECIFIED','UNSPECIFIED');
#56=APPROVAL_STATUS('approved');
#57=SECURITY_CLASSIFICATION_LEVEL('unclassified');
#58=MECHANICAL_CONTEXT('',#29,'mechanical');
#59=MANIFOLD_SOLID_BREP('1',#78);
#60=AXIS2_PLACEMENT_3D('',#79,#80,#81);
#61=MANIFOLD_SOLID_BREP('2',#82);
#62=AXIS2_PLACEMENT_3D('',#83,#84,#85);
#63=MANIFOLD_SOLID_BREP('3',#86);
#64=AXIS2_PLACEMENT_3D('',#87,#88,#89);
#67=LENGTH_MEASURE_WITH_UNIT(LENGTH_MEASURE(1.0),#90);
#70=DIMENSIONAL_EXPONENTS(1.0,0.0,0.0,0.0,0.0,0.0,0.0);
#72=DIMENSIONAL_EXPONENTS(0.0,0.0,0.0,0.0,0.0,0.0,0.0);
#78=CLOSED_SHELL('',(#91,#92,#93,#94));
#79=CARTESIAN_POINT('',(0.0,0.0,0.0));
#80=DIRECTION('',(0.0,0.0,1.0));
#81=DIRECTION('',(1.0,0.0,0.0));
#82=CLOSED_SHELL('',(#95,#96,#97,#98,#99,#100,#101,#102));
#83=CARTESIAN_POINT('',(0.0,0.0,0.0));
#84=DIRECTION('',(0.0,0.0,1.0));
#85=DIRECTION('',(1.0,0.0,0.0));
#86=CLOSED_SHELL('',(#103,#104,#105,#106));
#87=CARTESIAN_POINT('',(0.0,0.0,0.0));
#88=DIRECTION('',(0.0,0.0,1.0));
#89=DIRECTION('',(1.0,0.0,0.0));
#90= (NAMED_UNIT(#70)LENGTH_UNIT()SI_UNIT(.MILLI.,.METRE.));
#91=ADVANCED_FACE('',(#108),#109,.T.);
#92=ADVANCED_FACE('',(#110,#111),#112,.T.);
#93=ADVANCED_FACE('',(#113),#114,.T.);
#94=ADVANCED_FACE('',(#115,#116),#117,.T.);
#95=ADVANCED_FACE('',(#118),#119,.T.);
#96=ADVANCED_FACE('',(#120),#121,.T.);
#97=ADVANCED_FACE('',(#122),#123,.F.);
#98=ADVANCED_FACE('',(#124),#125,.T.);
#99=ADVANCED_FACE('',(#126),#127,.F.);
#100=ADVANCED_FACE('',(#128),#129,.T.);
#101=ADVANCED_FACE('',(#130),#131,.T.);
#102=ADVANCED_FACE('',(#132),#133,.F.);
#103=ADVANCED_FACE('',(#134),#135,.T.);
#104=ADVANCED_FACE('',(#136,#137),#138,.T.);
#105=ADVANCED_FACE('',(#139),#140,.T.);
#106=ADVANCED_FACE('',(#141,#142),#143,.T.);
#108=FACE_OUTER_BOUND('',#144,.T.);
#109=PLANE('',#145);
#110=FACE_OUTER_BOUND('',#146,.T.);
#111=FACE_OUTER_BOUND('',#147,.T.);
#112=CYLINDRICAL_SURFACE('',#148,2.7);
#113=FACE_OUTER_BOUND('',#149,.T.);
#114=PLANE('',#150);
#115=FACE_BOUND('',#151,.T.);
#116=FACE_OUTER_BOUND('',#152,.T.);
#117=CONICAL_SURFACE('',#153,2.7,0.785398163397448);
#118=FACE_OUTER_BOUND('',#154,.T.);
#119=CYLINDRICAL_SURFACE('',#155,4.0);
#120=FACE_OUTER_BOUND('',#156,.T.);
#121=PLANE('',#157);
#122=FACE_OUTER_BOUND('',#158,.T.);
#123=PLANE('',#159);
#124=FACE_OUTER_BOUND('',#160,.T.);
#125=CYLINDRICAL_SURFACE('',#161,4.0);
#126=FACE_OUTER_BOUND('',#162,.T.);
#127=PLANE('',#163);
#128=FACE_OUTER_BOUND('',#164,.T.);
#129=CYLINDRICAL_SURFACE('',#165,4.0);
#130=FACE_OUTER_BOUND('',#166,.T.);
#131=CYLINDRICAL_SURFACE('',#167,4.0);
#132=FACE_OUTER_BOUND('',#168,.T.);
#133=PLANE('',#169);
#134=FACE_OUTER_BOUND('',#170,.T.);
#135=PLANE('',#171);
#136=FACE_OUTER_BOUND('',#172,.T.);
#137=FACE_OUTER_BOUND('',#173,.T.);
#138=CYLINDRICAL_SURFACE('',#174,2.375);
#139=FACE_OUTER_BOUND('',#175,.T.);
#140=PLANE('',#176);
#141=FACE_OUTER_BOUND('',#177,.T.);
#142=FACE_OUTER_BOUND('',#178,.T.);
#143=(B_SPLINE_SURFACE(3,3,((#180,#181,#182,#183,#184,#185,#186),(#187,#188,#189,#190,#191,#192,#193),(#194,#195,#196,#197,#198,#199,#200),(#201,#202,#203,#204,#205,#206,#207)),.UNSPECIFIED.,.F.,.T.,.F.)B_SPLINE_SURFACE_WITH_KNOTS((4,4),(4,3,4),(0.0,6.28318530717959),(0.0,0.785398163397448,1.5707963267949),.UNSPECIFIED.)RATIONAL_B_SPLINE_SURFACE(((1.0,0.333333333333333,0.333333333333333,1.0,0.333333333333333,0.333333333333333,1.0),(0.804737854124365,0.268245951374788,0.268245951374788,0.804737854124365,0.268245951374788,0.268245951374788,0.804737854124365),(0.804737854124365,0.268245951374788,0.268245951374788,0.804737854124365,0.268245951374788,0.268245951374788,0.804737854124365),(1.0,0.333333333333333,0.333333333333333,1.0,0.333333333333333,0.333333333333333,1.0)))BOUNDED_SURFACE()REPRESENTATION_ITEM('')GEOMETRIC_REPRESENTATION_ITEM()SURFACE());
#144=EDGE_LOOP('',(#214));
#145=AXIS2_PLACEMENT_3D('',#215,#216,#217);
#146=EDGE_LOOP('',(#218));
#147=EDGE_LOOP('',(#219));
#148=AXIS2_PLACEMENT_3D('',#220,#221,#222);
#149=EDGE_LOOP('',(#223));
#150=AXIS2_PLACEMENT_3D('',#224,#225,#226);
#151=EDGE_LOOP('',(#227));
#152=EDGE_LOOP('',(#228));
#153=AXIS2_PLACEMENT_3D('',#229,#230,#231);
#154=EDGE_LOOP('',(#232,#233,#234,#235));
#155=AXIS2_PLACEMENT_3D('',#236,#237,#238);
#156=EDGE_LOOP('',(#239,#240,#241,#242,#243,#244));
#157=AXIS2_PLACEMENT_3D('',#245,#246,#247);
#158=EDGE_LOOP('',(#248,#249,#250,#251));
#159=AXIS2_PLACEMENT_3D('',#252,#253,#254);
#160=EDGE_LOOP('',(#255,#256,#257,#258));
#161=AXIS2_PLACEMENT_3D('',#259,#260,#261);
#162=EDGE_LOOP('',(#262,#263,#264,#265));
#163=AXIS2_PLACEMENT_3D('',#266,#267,#268);
#164=EDGE_LOOP('',(#269,#270,#271,#272));
#165=AXIS2_PLACEMENT_3D('',#273,#274,#275);
#166=EDGE_LOOP('',(#276,#277,#278,#279));
#167=AXIS2_PLACEMENT_3D('',#280,#281,#282);
#168=EDGE_LOOP('',(#283,#284,#285,#286,#287,#288));
#169=AXIS2_PLACEMENT_3D('',#289,#290,#291);
#170=EDGE_LOOP('',(#292));
#171=AXIS2_PLACEMENT_3D('',#293,#294,#295);
#172=EDGE_LOOP('',(#296));
#173=EDGE_LOOP('',(#297));
#174=AXIS2_PLACEMENT_3D('',#298,#299,#300);
#175=EDGE_LOOP('',(#301));
#176=AXIS2_PLACEMENT_3D('',#302,#303,#304);
#177=EDGE_LOOP('',(#305));
#178=EDGE_LOOP('',(#306));
#180=CARTESIAN_POINT('',(2.14276695296637,-1.76776695296637,9.2));
#181=CARTESIAN_POINT('',(2.14276695296637,-1.01776695296637,9.2));
#182=CARTESIAN_POINT('',(1.39276695296637,-1.01776695296637,9.2));
#183=CARTESIAN_POINT('',(1.39276695296637,-1.76776695296637,9.2));
#184=CARTESIAN_POINT('',(1.39276695296637,-2.51776695296637,9.2));
#185=CARTESIAN_POINT('',(2.14276695296637,-2.51776695296637,9.2));
#186=CARTESIAN_POINT('',(2.14276695296637,-1.76776695296637,9.2));
#187=CARTESIAN_POINT('',(3.31433982822018,-1.76776695296637,9.2));
#188=CARTESIAN_POINT('',(3.31433982822018,1.32537879754125,9.2));
#189=CARTESIAN_POINT('',(0.22119407771256,1.32537879754125,9.2));
#190=CARTESIAN_POINT('',(0.22119407771256,-1.76776695296637,9.2));
#191=CARTESIAN_POINT('',(0.22119407771256,-4.86091270347399,9.2));
#192=CARTESIAN_POINT('',(3.31433982822018,-4.86091270347399,9.2));
#193=CARTESIAN_POINT('',(3.31433982822018,-1.76776695296637,9.2));
#194=CARTESIAN_POINT('',(4.14276695296637,-1.76776695296637,8.37157287525381));
#195=CARTESIAN_POINT('',(4.14276695296637,2.98223304703363,8.37157287525381));
#196=CARTESIAN_POINT('',(-0.60723304703363,2.98223304703363,8.37157287525381));
#197=CARTESIAN_POINT('',(-0.60723304703363,-1.76776695296637,8.37157287525381));
#198=CARTESIAN_POINT('',(-0.60723304703363,-6.51776695296637,8.37157287525381));
#199=CARTESIAN_POINT('',(4.14276695296637,-6.51776695296637,8.37157287525381));
#200=CARTESIAN_POINT('',(4.14276695296637,-1.76776695296637,8.37157287525381));
#201=CARTESIAN_POINT('',(4.14276695296637,-1.76776695296637,7.2));
#202=CARTESIAN_POINT('',(4.14276695296637,2.98223304703363,7.2));
#203=CARTESIAN_POINT('',(-0.60723304703363,2.98223304703363,7.2));
#204=CARTESIAN_POINT('',(-0.60723304703363,-1.76776695296637,7.2));
#205=CARTESIAN_POINT('',(-0.60723304703363,-6.51776695296637,7.2));
#206=CARTESIAN_POINT('',(4.14276695296637,-6.51776695296637,7.2));
#207=CARTESIAN_POINT('',(4.14276695296637,-1.76776695296637,7.2));
#214=ORIENTED_EDGE('',*,*,#307,.F.);
#215=CARTESIAN_POINT('',(0.0,0.0,0.0));
#216=DIRECTION('',(0.0,0.0,1.0));
#217=DIRECTION('',(1.0,0.0,0.0));
#218=ORIENTED_EDGE('',*,*,#308,.T.);
#219=ORIENTED_EDGE('',*,*,#307,.T.);
#220=CARTESIAN_POINT('',(0.0,0.0,0.0));
#221=DIRECTION('',(0.0,0.0,-1.0));
#222=DIRECTION('',(1.0,0.0,0.0));
#223=ORIENTED_EDGE('',*,*,#309,.T.);
#224=CARTESIAN_POINT('',(0.0,0.0,-7.5));
#225=DIRECTION('',(0.0,0.0,-1.0));
#226=DIRECTION('',(-1.0,0.0,0.0));
#227=ORIENTED_EDGE('',*,*,#309,.F.);
#228=ORIENTED_EDGE('',*,*,#308,.F.);
#229=CARTESIAN_POINT('',(0.0,0.0,-7.0));
#230=DIRECTION('',(-0.0,-0.0,1.0));
#231=DIRECTION('',(1.0,0.0,0.0));
#232=ORIENTED_EDGE('',*,*,#310,.T.);
#233=ORIENTED_EDGE('',*,*,#311,.F.);
#234=ORIENTED_EDGE('',*,*,#312,.F.);
#235=ORIENTED_EDGE('',*,*,#313,.T.);
#236=CARTESIAN_POINT('',(3.5,0.0,2.9));
#237=DIRECTION('',(0.0,0.0,-1.0));
#238=DIRECTION('',(0.0,-1.0,0.0));
#239=ORIENTED_EDGE('',*,*,#314,.T.);
#240=ORIENTED_EDGE('',*,*,#315,.T.);
#241=ORIENTED_EDGE('',*,*,#316,.T.);
#242=ORIENTED_EDGE('',*,*,#317,.T.);
#243=ORIENTED_EDGE('',*,*,#318,.T.);
#244=ORIENTED_EDGE('',*,*,#312,.T.);
#245=CARTESIAN_POINT('',(3.5,0.0,2.9));
#246=DIRECTION('',(0.0,-0.0,1.0));
#247=DIRECTION('',(0.0,1.0,0.0));
#248=ORIENTED_EDGE('',*,*,#319,.T.);
#249=ORIENTED_EDGE('',*,*,#313,.F.);
#250=ORIENTED_EDGE('',*,*,#318,.F.);
#251=ORIENTED_EDGE('',*,*,#320,.T.);
#252=CARTESIAN_POINT('',(-3.0,-4.0,2.9));
#253=DIRECTION('',(0.0,1.0,0.0));
#254=DIRECTION('',(-1.0,0.0,0.0));
#255=ORIENTED_EDGE('',*,*,#321,.T.);
#256=ORIENTED_EDGE('',*,*,#322,.F.);
#257=ORIENTED_EDGE('',*,*,#314,.F.);
#258=ORIENTED_EDGE('',*,*,#311,.T.);
#259=CARTESIAN_POINT('',(3.5,0.0,2.9));
#260=DIRECTION('',(0.0,0.0,-1.0));
#261=DIRECTION('',(0.0,-1.0,0.0));
#262=ORIENTED_EDGE('',*,*,#323,.T.);
#263=ORIENTED_EDGE('',*,*,#324,.F.);
#264=ORIENTED_EDGE('',*,*,#315,.F.);
#265=ORIENTED_EDGE('',*,*,#322,.T.);
#266=CARTESIAN_POINT('',(3.5,4.0,2.9));
#267=DIRECTION('',(0.0,-1.0,0.0));
#268=DIRECTION('',(1.0,0.0,0.0));
#269=ORIENTED_EDGE('',*,*,#325,.T.);
#270=ORIENTED_EDGE('',*,*,#326,.F.);
#271=ORIENTED_EDGE('',*,*,#316,.F.);
#272=ORIENTED_EDGE('',*,*,#324,.T.);
#273=CARTESIAN_POINT('',(-3.0,0.0,2.9));
#274=DIRECTION('',(0.0,0.0,-1.0));
#275=DIRECTION('',(0.0,-1.0,0.0));
#276=ORIENTED_EDGE('',*,*,#327,.T.);
#277=ORIENTED_EDGE('',*,*,#320,.F.);
#278=ORIENTED_EDGE('',*,*,#317,.F.);
#279=ORIENTED_EDGE('',*,*,#326,.T.);
#280=CARTESIAN_POINT('',(-3.0,0.0,2.9));
#281=DIRECTION('',(0.0,0.0,-1.0));
#282=DIRECTION('',(0.0,-1.0,0.0));
#283=ORIENTED_EDGE('',*,*,#321,.F.);
#284=ORIENTED_EDGE('',*,*,#310,.F.);
#285=ORIENTED_EDGE('',*,*,#319,.F.);
#286=ORIENTED_EDGE('',*,*,#327,.F.);
#287=ORIENTED_EDGE('',*,*,#325,.F.);
#288=ORIENTED_EDGE('',*,*,#323,.F.);
#289=CARTESIAN_POINT('',(3.5,0.0,0.0));
#290=DIRECTION('',(0.0,-0.0,1.0));
#291=DIRECTION('',(0.0,1.0,0.0));
#292=ORIENTED_EDGE('',*,*,#328,.F.);
#293=CARTESIAN_POINT('',(1.76776695296637,-1.76776695296637,3.0));
#294=DIRECTION('',(0.0,0.0,-1.0));
#295=DIRECTION('',(-1.0,0.0,0.0));
#296=ORIENTED_EDGE('',*,*,#329,.T.);
#297=ORIENTED_EDGE('',*,*,#328,.T.);
#298=CARTESIAN_POINT('',(1.76776695296637,-1.76776695296637,3.0));
#299=DIRECTION('',(0.0,0.0,1.0));
#300=DIRECTION('',(1.0,0.0,0.0));
#301=ORIENTED_EDGE('',*,*,#330,.T.);
#302=CARTESIAN_POINT('',(1.76776695296637,-1.76776695296637,9.2));
#303=DIRECTION('',(0.0,0.0,1.0));
#304=DIRECTION('',(1.0,0.0,0.0));
#305=ORIENTED_EDGE('',*,*,#330,.F.);
#306=ORIENTED_EDGE('',*,*,#329,.F.);
#307=EDGE_CURVE('',#331,#331,#332,.T.);
#308=EDGE_CURVE('',#333,#333,#334,.F.);
#309=EDGE_CURVE('',#335,#335,#336,.T.);
#310=EDGE_CURVE('',#337,#338,#339,.T.);
#311=EDGE_CURVE('',#340,#338,#341,.T.);
#312=EDGE_CURVE('',#342,#340,#343,.T.);
#313=EDGE_CURVE('',#342,#337,#344,.T.);
#314=EDGE_CURVE('',#340,#345,#346,.T.);
#315=EDGE_CURVE('',#345,#347,#348,.T.);
#316=EDGE_CURVE('',#347,#349,#350,.T.);
#317=EDGE_CURVE('',#349,#351,#352,.T.);
#318=EDGE_CURVE('',#351,#342,#353,.T.);
#319=EDGE_CURVE('',#354,#337,#355,.T.);
#320=EDGE_CURVE('',#351,#354,#356,.T.);
#321=EDGE_CURVE('',#338,#357,#358,.T.);
#322=EDGE_CURVE('',#345,#357,#359,.T.);
#323=EDGE_CURVE('',#357,#360,#361,.T.);
#324=EDGE_CURVE('',#347,#360,#362,.T.);
#325=EDGE_CURVE('',#360,#363,#364,.T.);
#326=EDGE_CURVE('',#349,#363,#365,.T.);
#327=EDGE_CURVE('',#363,#354,#366,.T.);
#328=EDGE_CURVE('',#367,#367,#368,.T.);
#329=EDGE_CURVE('',#369,#369,#370,.F.);
#330=EDGE_CURVE('',#371,#371,#372,.T.);
#331=VERTEX_POINT('',#373);
#332=CIRCLE('',#374,2.7);
#333=VERTEX_POINT('',#375);
#334=CIRCLE('',#376,2.7);
#335=VERTEX_POINT('',#377);
#336=CIRCLE('',#378,2.2);
#337=VERTEX_POINT('',#379);
#338=VERTEX_POINT('',#380);
#339=CIRCLE('',#381,4.0);
#340=VERTEX_POINT('',#382);
#341=LINE('',#383,#384);
#342=VERTEX_POINT('',#385);
#343=CIRCLE('',#386,4.0);
#344=LINE('',#387,#388);
#345=VERTEX_POINT('',#389);
#346=CIRCLE('',#390,4.0);
#347=VERTEX_POINT('',#391);
#348=LINE('',#392,#393);
#349=VERTEX_POINT('',#394);
#350=CIRCLE('',#395,4.0);
#351=VERTEX_POINT('',#396);
#352=CIRCLE('',#397,4.0);
#353=LINE('',#398,#399);
#354=VERTEX_POINT('',#400);
#355=LINE('',#401,#402);
#356=LINE('',#403,#404);
#357=VERTEX_POINT('',#405);
#358=CIRCLE('',#406,4.0);
#359=LINE('',#407,#408);
#360=VERTEX_POINT('',#409);
#361=LINE('',#410,#411);
#362=LINE('',#412,#413);
#363=VERTEX_POINT('',#414);
#364=CIRCLE('',#415,4.0);
#365=LINE('',#416,#417);
#366=CIRCLE('',#418,4.0);
#367=VERTEX_POINT('',#419);
#368=CIRCLE('',#420,2.375);
#369=VERTEX_POINT('',#421);
#370=CIRCLE('',#422,2.375);
#371=VERTEX_POINT('',#423);
#372=CIRCLE('',#424,0.375);
#373=CARTESIAN_POINT('',(2.7,0.0,0.0));
#374=AXIS2_PLACEMENT_3D('',#425,#426,#427);
#375=CARTESIAN_POINT('',(-2.7,-6.61309271539571E-16,-7.0));
#376=AXIS2_PLACEMENT_3D('',#428,#429,#430);
#377=CARTESIAN_POINT('',(-2.2,0.0,-7.5));
#378=AXIS2_PLACEMENT_3D('',#431,#432,#433);
#379=CARTESIAN_POINT('',(3.5,-4.0,0.0));
#380=CARTESIAN_POINT('',(7.5,0.0,0.0));
#381=AXIS2_PLACEMENT_3D('',#434,#435,#436);
#382=CARTESIAN_POINT('',(7.5,0.0,2.9));
#383=CARTESIAN_POINT('',(7.5,0.0,2.9));
#384=VECTOR('',#437,1.0);
#385=CARTESIAN_POINT('',(3.5,-4.0,2.9));
#386=AXIS2_PLACEMENT_3D('',#438,#439,#440);
#387=CARTESIAN_POINT('',(3.5,-4.0,2.9));
#388=VECTOR('',#441,1.0);
#389=CARTESIAN_POINT('',(3.5,4.0,2.9));
#390=AXIS2_PLACEMENT_3D('',#442,#443,#444);
#391=CARTESIAN_POINT('',(-3.0,4.0,2.9));
#392=CARTESIAN_POINT('',(3.5,4.0,2.9));
#393=VECTOR('',#445,1.0);
#394=CARTESIAN_POINT('',(-7.0,8.67361737988404E-16,2.9));
#395=AXIS2_PLACEMENT_3D('',#446,#447,#448);
#396=CARTESIAN_POINT('',(-3.0,-4.0,2.9));
#397=AXIS2_PLACEMENT_3D('',#449,#450,#451);
#398=CARTESIAN_POINT('',(-3.0,-4.0,2.9));
#399=VECTOR('',#452,1.0);
#400=CARTESIAN_POINT('',(-3.0,-4.0,0.0));
#401=CARTESIAN_POINT('',(-3.0,-4.0,0.0));
#402=VECTOR('',#453,1.0);
#403=CARTESIAN_POINT('',(-3.0,-4.0,2.9));
#404=VECTOR('',#454,1.0);
#405=CARTESIAN_POINT('',(3.5,4.0,0.0));
#406=AXIS2_PLACEMENT_3D('',#455,#456,#457);
#407=CARTESIAN_POINT('',(3.5,4.0,2.9));
#408=VECTOR('',#458,1.0);
#409=CARTESIAN_POINT('',(-3.0,4.0,0.0));
#410=CARTESIAN_POINT('',(3.5,4.0,0.0));
#411=VECTOR('',#459,1.0);
#412=CARTESIAN_POINT('',(-3.0,4.0,2.9));
#413=VECTOR('',#460,1.0);
#414=CARTESIAN_POINT('',(-7.0,8.67361737988404E-16,0.0));
#415=AXIS2_PLACEMENT_3D('',#461,#462,#463);
#416=CARTESIAN_POINT('',(-7.0,8.67361737988404E-16,2.9));
#417=VECTOR('',#464,1.0);
#418=AXIS2_PLACEMENT_3D('',#465,#466,#467);
#419=CARTESIAN_POINT('',(4.14276695296637,-1.76776695296637,3.0));
#420=AXIS2_PLACEMENT_3D('',#468,#469,#470);
#421=CARTESIAN_POINT('',(4.14276695296637,-1.76776695296637,7.2));
#422=AXIS2_PLACEMENT_3D('',#471,#472,#473);
#423=CARTESIAN_POINT('',(2.14276695296637,-1.76776695296637,9.2));
#424=AXIS2_PLACEMENT_3D('',#474,#475,#476);
#425=CARTESIAN_POINT('',(0.0,0.0,0.0));
#426=DIRECTION('',(0.0,0.0,-1.0));
#427=DIRECTION('',(1.0,0.0,0.0));
#428=CARTESIAN_POINT('',(0.0,0.0,-7.0));
#429=DIRECTION('',(0.0,0.0,-1.0));
#430=DIRECTION('',(-1.0,0.0,0.0));
#431=CARTESIAN_POINT('',(0.0,0.0,-7.5));
#432=DIRECTION('',(0.0,0.0,-1.0));
#433=DIRECTION('',(-1.0,0.0,0.0));
#434=CARTESIAN_POINT('',(3.5,0.0,0.0));
#435=DIRECTION('',(0.0,0.0,1.0));
#436=DIRECTION('',(1.0,0.0,0.0));
#437=DIRECTION('',(0.0,0.0,-1.0));
#438=CARTESIAN_POINT('',(3.5,0.0,2.9));
#439=DIRECTION('',(0.0,0.0,1.0));
#440=DIRECTION('',(1.0,0.0,0.0));
#441=DIRECTION('',(0.0,0.0,-1.0));
#442=CARTESIAN_POINT('',(3.5,0.0,2.9));
#443=DIRECTION('',(0.0,0.0,1.0));
#444=DIRECTION('',(1.0,0.0,0.0));
#445=DIRECTION('',(-1.0,0.0,0.0));
#446=CARTESIAN_POINT('',(-3.0,0.0,2.9));
#447=DIRECTION('',(0.0,0.0,1.0));
#448=DIRECTION('',(1.0,0.0,0.0));
#449=CARTESIAN_POINT('',(-3.0,0.0,2.9));
#450=DIRECTION('',(0.0,0.0,1.0));
#451=DIRECTION('',(1.0,0.0,0.0));
#452=DIRECTION('',(1.0,0.0,0.0));
#453=DIRECTION('',(1.0,0.0,0.0));
#454=DIRECTION('',(0.0,0.0,-1.0));
#455=CARTESIAN_POINT('',(3.5,0.0,0.0));
#456=DIRECTION('',(0.0,0.0,1.0));
#457=DIRECTION('',(1.0,0.0,0.0));
#458=DIRECTION('',(0.0,0.0,-1.0));
#459=DIRECTION('',(-1.0,0.0,0.0));
#460=DIRECTION('',(0.0,0.0,-1.0));
#461=CARTESIAN_POINT('',(-3.0,0.0,0.0));
#462=DIRECTION('',(0.0,0.0,1.0));
#463=DIRECTION('',(1.0,0.0,0.0));
#464=DIRECTION('',(0.0,0.0,-1.0));
#465=CARTESIAN_POINT('',(-3.0,0.0,0.0));
#466=DIRECTION('',(0.0,0.0,1.0));
#467=DIRECTION('',(1.0,0.0,0.0));
#468=CARTESIAN_POINT('',(1.76776695296637,-1.76776695296637,3.0));
#469=DIRECTION('',(0.0,0.0,1.0));
#470=DIRECTION('',(1.0,0.0,0.0));
#471=CARTESIAN_POINT('',(1.76776695296637,-1.76776695296637,7.2));
#472=DIRECTION('',(0.0,0.0,1.0));
#473=DIRECTION('',(1.0,0.0,0.0));
#474=CARTESIAN_POINT('',(1.76776695296637,-1.76776695296637,9.2));
#475=DIRECTION('',(0.0,0.0,1.0));
#476=DIRECTION('',(1.0,0.0,0.0));
ENDSEC;
END-ISO-10303-21;
