ISO-10303-21;
HEADER;
FILE_DESCRIPTION (( 'STEP AP203' ),
    '1' );
FILE_NAME ('F0862-400-003.STEP',
    '2023-11-14T12:41:22',
    ( '' ),
    ( '' ),
    'SwSTEP 2.0',
    'SolidWorks 2021',
    '' );
FILE_SCHEMA (( 'CONFIG_CONTROL_DESIGN' ));
ENDSEC;

DATA;
#1 = SHAPE_DEFINITION_REPRESENTATION ( #92, #103 ) ;
#2 = VECTOR ( 'NONE', #125, 1000.000000000000000 ) ;
#3 = DIRECTION ( 'NONE',  ( -0.000000000000000000, -0.000000000000000000, -1.000000000000000000 ) ) ;
#4 = CARTESIAN_POINT ( 'NONE',  ( 300.0000000000000000, -8.999999999999960920, 2.000000000000000000 ) ) ;
#5 = PLANE ( 'NONE',  #38 ) ;
#6 = AXIS2_PLACEMENT_3D ( 'NONE', #14, #341, #21 ) ;
#7 = DIRECTION ( 'NONE',  ( -0.000000000000000000, -1.000000000000000000, -0.000000000000000000 ) ) ;
#8 = CARTESIAN_POINT ( 'NONE',  ( 90.20000000000031548, 1.387778780781445676E-14, 2.000000000000000000 ) ) ;
#9 = EDGE_CURVE ( 'NONE', #228, #19, #302, .T. ) ;
#10 = CARTESIAN_POINT ( 'NONE',  ( 81.80000000000032401, 1.439213946345634564E-14, 0.000000000000000000 ) ) ;
#11 = ORIENTED_EDGE ( 'NONE', *, *, #99, .T. ) ;
#12 = ADVANCED_FACE ( 'NONE', ( #303 ), #290, .F. ) ;
#13 = AXIS2_PLACEMENT_3D ( 'NONE', #108, #318, #287 ) ;
#14 = CARTESIAN_POINT ( 'NONE',  ( 85.00000000000032685, 1.387778780781445676E-14, 2.000000000000000000 ) ) ;
#15 = VERTEX_POINT ( 'NONE', #129 ) ;
#16 = DIRECTION ( 'NONE',  ( 0.000000000000000000, -0.000000000000000000, 1.000000000000000000 ) ) ;
#17 = ORIENTED_EDGE ( 'NONE', *, *, #131, .T. ) ;
#18 = DIRECTION ( 'NONE',  ( 0.000000000000000000, -0.000000000000000000, 1.000000000000000000 ) ) ;
#19 = VERTEX_POINT ( 'NONE', #98 ) ;
#20 = VECTOR ( 'NONE', #174, 1000.000000000000000 ) ;
#21 = DIRECTION ( 'NONE',  ( 1.000000000000000000, 0.000000000000000000, 0.000000000000000000 ) ) ;
#22 = VERTEX_POINT ( 'NONE', #277 ) ;
#23 = SECURITY_CLASSIFICATION_LEVEL ( 'unclassified' ) ;
#24 = CARTESIAN_POINT ( 'NONE',  ( -300.0000000000001137, 8.999999999999962697, 0.000000000000000000 ) ) ;
#25 = VERTEX_POINT ( 'NONE', #358 ) ;
#26 = CC_DESIGN_PERSON_AND_ORGANIZATION_ASSIGNMENT ( #377, #113, ( #224 ) ) ;
#27 = AXIS2_PLACEMENT_3D ( 'NONE', #332, #163, #70 ) ;
#28 = CC_DESIGN_APPROVAL ( #305, ( #77 ) ) ;
#29 = ORIENTED_EDGE ( 'NONE', *, *, #56, .T. ) ;
#30 = PERSON_AND_ORGANIZATION ( #84, #359 ) ;
#31 = COORDINATED_UNIVERSAL_TIME_OFFSET ( 1, 0, .AHEAD. ) ;
#32 = DIRECTION ( 'NONE',  ( -0.7071067811865460184, 8.659560562354913137E-17, 0.7071067811865489050 ) ) ;
#33 = CC_DESIGN_PERSON_AND_ORGANIZATION_ASSIGNMENT ( #30, #384, ( #215 ) ) ;
#34 = CARTESIAN_POINT ( 'NONE',  ( -84.99999999999968736, 1.387778780781445676E-14, 0.000000000000000000 ) ) ;
#35 = DIRECTION ( 'NONE',  ( 1.000000000000000000, 0.000000000000000000, -0.000000000000000000 ) ) ;
#36 = CARTESIAN_POINT ( 'NONE',  ( 300.0000000000000000, -8.999999999999960920, 0.000000000000000000 ) ) ;
#37 = LINE ( 'NONE', #66, #347 ) ;
#38 = AXIS2_PLACEMENT_3D ( 'NONE', #328, #100, #35 ) ;
#39 = EDGE_CURVE ( 'NONE', #268, #22, #189, .T. ) ;
#40 = CARTESIAN_POINT ( 'NONE',  ( -90.19999999999969020, 1.451460414337108079E-14, 2.000000000000000000 ) ) ;
#41 = CALENDAR_DATE ( 2023, 14, 11 ) ;
#42 = ADVANCED_FACE ( 'NONE', ( #275 ), #214, .F. ) ;
#43 = DIRECTION ( 'NONE',  ( 1.000000000000000000, 0.000000000000000000, 0.000000000000000000 ) ) ;
#44 = LINE ( 'NONE', #164, #238 ) ;
#45 = ORIENTED_EDGE ( 'NONE', *, *, #317, .T. ) ;
#46 = VECTOR ( 'NONE', #75, 1000.000000000000000 ) ;
#47 = COORDINATED_UNIVERSAL_TIME_OFFSET ( 1, 0, .AHEAD. ) ;
#48 = DIRECTION ( 'NONE',  ( 0.000000000000000000, 0.000000000000000000, -1.000000000000000000 ) ) ;
#49 = DIRECTION ( 'NONE',  ( 1.000000000000000000, 0.000000000000000000, 0.000000000000000000 ) ) ;
#50 = ORIENTED_EDGE ( 'NONE', *, *, #201, .F. ) ;
#51 = DIRECTION ( 'NONE',  ( -1.000000000000000000, 0.000000000000000000, 0.000000000000000000 ) ) ;
#52 = VECTOR ( 'NONE', #68, 1000.000000000000114 ) ;
#53 = LOCAL_TIME ( 13, 41, 22.00000000000000000, #31 ) ;
#54 = DATE_AND_TIME ( #320, #248 ) ;
#55 = ORIENTED_EDGE ( 'NONE', *, *, #217, .F. ) ;
#56 = EDGE_CURVE ( 'NONE', #124, #15, #221, .T. ) ;
#57 = ORIENTED_EDGE ( 'NONE', *, *, #185, .F. ) ;
#58 = PERSON_AND_ORGANIZATION ( #84, #359 ) ;
#59 = APPROVAL_DATE_TIME ( #54, #93 ) ;
#60 =( GEOMETRIC_REPRESENTATION_CONTEXT ( 3 ) GLOBAL_UNCERTAINTY_ASSIGNED_CONTEXT ( ( #256 ) ) GLOBAL_UNIT_ASSIGNED_CONTEXT ( ( #345, #153, #292 ) ) REPRESENTATION_CONTEXT ( 'NONE', 'WORKASPACE' ) );
#61 = EDGE_CURVE ( 'NONE', #151, #25, #304, .T. ) ;
#62 = DIRECTION ( 'NONE',  ( 1.000000000000000000, 0.000000000000000000, 0.000000000000000000 ) ) ;
#63 = CARTESIAN_POINT ( 'NONE',  ( -300.0000000000001137, -9.000000000000035527, 2.000000000000000000 ) ) ;
#64 = AXIS2_PLACEMENT_3D ( 'NONE', #34, #360, #361 ) ;
#65 = CARTESIAN_POINT ( 'NONE',  ( 300.0000000000000000, -8.999999999999960920, 2.000000000000000000 ) ) ;
#66 = CARTESIAN_POINT ( 'NONE',  ( -300.0000000000001137, -9.000000000000035527, 2.000000000000000000 ) ) ;
#67 = PERSON_AND_ORGANIZATION ( #84, #359 ) ;
#68 = DIRECTION ( 'NONE',  ( 0.7071067811865460184, 0.000000000000000000, 0.7071067811865489050 ) ) ;
#69 = ADVANCED_FACE ( 'NONE', ( #186, #330, #246 ), #5, .F. ) ;
#70 = DIRECTION ( 'NONE',  ( 1.000000000000000000, 0.000000000000000000, 0.000000000000000000 ) ) ;
#71 = CARTESIAN_POINT ( 'NONE',  ( 0.000000000000000000, 0.000000000000000000, 2.000000000000000000 ) ) ;
#72 = LINE ( 'NONE', #194, #81 ) ;
#73 = MANIFOLD_SOLID_BREP ( 'Fraisage pour vis à tête fraisée M51', #159 ) ;
#74 = CARTESIAN_POINT ( 'NONE',  ( 85.00000000000032685, 1.387778780781445676E-14, 2.000000000000000000 ) ) ;
#75 = DIRECTION ( 'NONE',  ( -1.000000000000000000, -1.214306433183764966E-16, 0.000000000000000000 ) ) ;
#76 = ORIENTED_EDGE ( 'NONE', *, *, #317, .F. ) ;
#77 = PRODUCT_DEFINITION ( 'UNKNOWN', '', #224, #82 ) ;
#78 = CARTESIAN_POINT ( 'NONE',  ( -84.99999999999968736, 1.387778780781445676E-14, 2.000000000000000000 ) ) ;
#79 = APPROVAL ( #252, 'UNSPECIFIED' ) ;
#80 = EDGE_LOOP ( 'NONE', ( #378, #122, #316, #313 ) ) ;
#81 = VECTOR ( 'NONE', #196, 1000.000000000000000 ) ;
#82 = DESIGN_CONTEXT ( 'detailed design', #86, 'design' ) ;
#83 = CARTESIAN_POINT ( 'NONE',  ( 300.0000000000000000, -8.999999999999960920, 0.000000000000000000 ) ) ;
#84 = PERSON ( 'UNSPECIFIED', 'UNSPECIFIED', 'UNSPECIFIED', ('UNSPECIFIED'), ('UNSPECIFIED'), ('UNSPECIFIED') ) ;
#85 = EDGE_LOOP ( 'NONE', ( #237, #50 ) ) ;
#86 = APPLICATION_CONTEXT ( 'configuration controlled 3d designs of mechanical parts and assemblies' ) ;
#87 = PERSON_AND_ORGANIZATION_ROLE ( 'design_owner' ) ;
#88 = ORIENTED_EDGE ( 'NONE', *, *, #107, .T. ) ;
#89 = AXIS2_PLACEMENT_3D ( 'NONE', #190, #249, #127 ) ;
#90 = CARTESIAN_POINT ( 'NONE',  ( -84.99999999999968736, 1.387778780781445676E-14, 2.000000000000000000 ) ) ;
#91 = LINE ( 'NONE', #274, #46 ) ;
#92 = PRODUCT_DEFINITION_SHAPE ( 'NONE', 'NONE',  #77 ) ;
#93 = APPROVAL ( #119, 'UNSPECIFIED' ) ;
#94 = CARTESIAN_POINT ( 'NONE',  ( 300.0000000000000000, -8.999999999999960920, 2.000000000000000000 ) ) ;
#95 = DIRECTION ( 'NONE',  ( 0.7071067811865460184, 0.000000000000000000, 0.7071067811865489050 ) ) ;
#96 = PRODUCT ( 'F0862-400-003', 'F0862-400-003', '', ( #348 ) ) ;
#97 = EDGE_CURVE ( 'NONE', #117, #184, #133, .T. ) ;
#98 = CARTESIAN_POINT ( 'NONE',  ( 79.80000000000032401, 1.451460414337108079E-14, 2.000000000000000000 ) ) ;
#99 = EDGE_CURVE ( 'NONE', #151, #228, #379, .T. ) ;
#100 = DIRECTION ( 'NONE',  ( 0.000000000000000000, -0.000000000000000000, 1.000000000000000000 ) ) ;
#101 = AXIS2_PLACEMENT_3D ( 'NONE', #247, #307, #357 ) ;
#102 = AXIS2_PLACEMENT_3D ( 'NONE', #90, #235, #206 ) ;
#103 = ADVANCED_BREP_SHAPE_REPRESENTATION ( 'F0862-400-003', ( #73, #150 ), #60 ) ;
#104 = DIRECTION ( 'NONE',  ( 1.214306433183764966E-16, -1.000000000000000000, 0.000000000000000000 ) ) ;
#105 = ORIENTED_EDGE ( 'NONE', *, *, #61, .F. ) ;
#106 = CARTESIAN_POINT ( 'NONE',  ( -300.0000000000001137, -9.000000000000035527, 0.000000000000000000 ) ) ;
#107 = EDGE_CURVE ( 'NONE', #124, #344, #156, .T. ) ;
#108 = CARTESIAN_POINT ( 'NONE',  ( -84.99999999999968736, 1.387778780781445676E-14, 2.000000000000000000 ) ) ;
#109 = EDGE_LOOP ( 'NONE', ( #370, #269, #325, #105 ) ) ;
#110 = CONICAL_SURFACE ( 'NONE', #282, 5.199999999999996625, 0.7853981633974461696 ) ;
#111 = CARTESIAN_POINT ( 'NONE',  ( 300.0000000000000000, -8.999999999999960920, 2.000000000000000000 ) ) ;
#112 = ORIENTED_EDGE ( 'NONE', *, *, #333, .T. ) ;
#113 = PERSON_AND_ORGANIZATION_ROLE ( 'creator' ) ;
#114 = ORIENTED_EDGE ( 'NONE', *, *, #97, .F. ) ;
#115 = ADVANCED_FACE ( 'NONE', ( #191 ), #310, .F. ) ;
#116 = PERSON_AND_ORGANIZATION ( #84, #359 ) ;
#117 = VERTEX_POINT ( 'NONE', #362 ) ;
#118 = VECTOR ( 'NONE', #158, 1000.000000000000000 ) ;
#119 = APPROVAL_STATUS ( 'not_yet_approved' ) ;
#120 = ORIENTED_EDGE ( 'NONE', *, *, #195, .T. ) ;
#121 = PERSON_AND_ORGANIZATION_ROLE ( 'creator' ) ;
#122 = ORIENTED_EDGE ( 'NONE', *, *, #333, .F. ) ;
#123 = AXIS2_PLACEMENT_3D ( 'NONE', #278, #193, #155 ) ;
#124 = VERTEX_POINT ( 'NONE', #94 ) ;
#125 = DIRECTION ( 'NONE',  ( 0.000000000000000000, 1.000000000000000000, 0.000000000000000000 ) ) ;
#126 = EDGE_CURVE ( 'NONE', #284, #137, #37, .T. ) ;
#127 = DIRECTION ( 'NONE',  ( 1.000000000000000000, 0.000000000000000000, 0.000000000000000000 ) ) ;
#128 = AXIS2_PLACEMENT_3D ( 'NONE', #202, #104, #336 ) ;
#129 = CARTESIAN_POINT ( 'NONE',  ( 300.0000000000000000, 9.000000000000035527, 2.000000000000000000 ) ) ;
#130 = DATE_TIME_ROLE ( 'classification_date' ) ;
#131 = EDGE_CURVE ( 'NONE', #268, #117, #236, .T. ) ;
#132 = DIRECTION ( 'NONE',  ( -0.7071067811865460184, 8.659560562354913137E-17, 0.7071067811865489050 ) ) ;
#133 = LINE ( 'NONE', #251, #308 ) ;
#134 = FACE_OUTER_BOUND ( 'NONE', #262, .T. ) ;
#135 = AXIS2_PLACEMENT_3D ( 'NONE', #329, #222, #250 ) ;
#136 = AXIS2_PLACEMENT_3D ( 'NONE', #311, #16, #43 ) ;
#137 = VERTEX_POINT ( 'NONE', #161 ) ;
#138 = CARTESIAN_POINT ( 'NONE',  ( -300.0000000000001137, 8.999999999999962697, 2.000000000000000000 ) ) ;
#139 = DIRECTION ( 'NONE',  ( 1.000000000000000000, 0.000000000000000000, 0.000000000000000000 ) ) ;
#140 = EDGE_LOOP ( 'NONE', ( #181, #203, #342, #294 ) ) ;
#141 = CARTESIAN_POINT ( 'NONE',  ( -81.79999999999968452, 1.387778780781445676E-14, 0.000000000000000000 ) ) ;
#142 = EDGE_LOOP ( 'NONE', ( #112, #385, #286, #45 ) ) ;
#143 = FACE_OUTER_BOUND ( 'NONE', #255, .T. ) ;
#144 = EDGE_CURVE ( 'NONE', #211, #344, #326, .T. ) ;
#145 = ORIENTED_EDGE ( 'NONE', *, *, #338, .T. ) ;
#146 = DIRECTION ( 'NONE',  ( 0.000000000000000000, 1.000000000000000000, 0.000000000000000000 ) ) ;
#147 = COORDINATED_UNIVERSAL_TIME_OFFSET ( 1, 0, .AHEAD. ) ;
#148 = EDGE_LOOP ( 'NONE', ( #17, #245 ) ) ;
#149 = AXIS2_PLACEMENT_3D ( 'NONE', #166, #263, #259 ) ;
#150 = AXIS2_PLACEMENT_3D ( 'NONE', #295, #322, #62 ) ;
#151 = VERTEX_POINT ( 'NONE', #223 ) ;
#152 = CC_DESIGN_PERSON_AND_ORGANIZATION_ASSIGNMENT ( #270, #87, ( #96 ) ) ;
#153 =( NAMED_UNIT ( * ) PLANE_ANGLE_UNIT ( ) SI_UNIT ( $, .RADIAN. ) );
#154 = CALENDAR_DATE ( 2023, 14, 11 ) ;
#155 = DIRECTION ( 'NONE',  ( 1.000000000000000000, 0.000000000000000000, 0.000000000000000000 ) ) ;
#156 = LINE ( 'NONE', #4, #272 ) ;
#157 = CC_DESIGN_DATE_AND_TIME_ASSIGNMENT ( #233, #130, ( #215 ) ) ;
#158 = DIRECTION ( 'NONE',  ( 1.000000000000000000, 1.243218491116711587E-16, -0.000000000000000000 ) ) ;
#159 = CLOSED_SHELL ( 'NONE', ( #42, #207, #356, #115, #210, #293, #242, #69, #12, #266 ) ) ;
#160 = CC_DESIGN_APPROVAL ( #93, ( #224 ) ) ;
#161 = CARTESIAN_POINT ( 'NONE',  ( -300.0000000000001137, -9.000000000000035527, 2.000000000000000000 ) ) ;
#162 = EDGE_CURVE ( 'NONE', #228, #151, #219, .T. ) ;
#163 = DIRECTION ( 'NONE',  ( 0.000000000000000000, -0.000000000000000000, 1.000000000000000000 ) ) ;
#164 = CARTESIAN_POINT ( 'NONE',  ( 300.0000000000000000, 9.000000000000035527, 0.000000000000000000 ) ) ;
#165 = ORIENTED_EDGE ( 'NONE', *, *, #126, .F. ) ;
#166 = CARTESIAN_POINT ( 'NONE',  ( 85.00000000000032685, 1.387778780781445676E-14, 2.000000000000000000 ) ) ;
#167 = VECTOR ( 'NONE', #146, 1000.000000000000000 ) ;
#168 = ORIENTED_EDGE ( 'NONE', *, *, #97, .T. ) ;
#169 = CC_DESIGN_DATE_AND_TIME_ASSIGNMENT ( #380, #264, ( #77 ) ) ;
#170 = CC_DESIGN_SECURITY_CLASSIFICATION ( #215, ( #224 ) ) ;
#171 = APPROVAL_DATE_TIME ( #337, #79 ) ;
#172 = PLANE ( 'NONE',  #188 ) ;
#173 = ORIENTED_EDGE ( 'NONE', *, *, #131, .F. ) ;
#174 = DIRECTION ( 'NONE',  ( -0.000000000000000000, -1.000000000000000000, -0.000000000000000000 ) ) ;
#175 = ORIENTED_EDGE ( 'NONE', *, *, #309, .T. ) ;
#176 = FACE_BOUND ( 'NONE', #85, .T. ) ;
#177 = DATE_AND_TIME ( #351, #198 ) ;
#178 = ORIENTED_EDGE ( 'NONE', *, *, #56, .F. ) ;
#179 = APPROVAL_ROLE ( '' ) ;
#180 = APPLICATION_PROTOCOL_DEFINITION ( 'international standard', 'config_control_design', 1994, #301 ) ;
#181 = ORIENTED_EDGE ( 'NONE', *, *, #9, .F. ) ;
#182 = LOCAL_TIME ( 13, 41, 22.00000000000000000, #271 ) ;
#183 = PERSON_AND_ORGANIZATION_ROLE ( 'design_supplier' ) ;
#184 = VERTEX_POINT ( 'NONE', #40 ) ;
#185 = EDGE_CURVE ( 'NONE', #137, #211, #279, .T. ) ;
#186 = FACE_BOUND ( 'NONE', #148, .T. ) ;
#187 = VECTOR ( 'NONE', #95, 1000.000000000000114 ) ;
#188 = AXIS2_PLACEMENT_3D ( 'NONE', #315, #199, #48 ) ;
#189 = LINE ( 'NONE', #218, #52 ) ;
#190 = CARTESIAN_POINT ( 'NONE',  ( -84.99999999999968736, 1.387778780781445676E-14, 2.000000000000000000 ) ) ;
#191 = FACE_OUTER_BOUND ( 'NONE', #367, .T. ) ;
#192 = AXIS2_PLACEMENT_3D ( 'NONE', #71, #18, #343 ) ;
#193 = DIRECTION ( 'NONE',  ( -0.000000000000000000, -0.000000000000000000, 1.000000000000000000 ) ) ;
#194 = CARTESIAN_POINT ( 'NONE',  ( 300.0000000000000000, -8.999999999999960920, 2.000000000000000000 ) ) ;
#195 = EDGE_CURVE ( 'NONE', #15, #284, #91, .T. ) ;
#196 = DIRECTION ( 'NONE',  ( 1.000000000000000000, 1.243218491116711587E-16, -0.000000000000000000 ) ) ;
#197 = CARTESIAN_POINT ( 'NONE',  ( 300.0000000000000000, -8.999999999999960920, 0.000000000000000000 ) ) ;
#198 = LOCAL_TIME ( 13, 41, 22.00000000000000000, #147 ) ;
#199 = DIRECTION ( 'NONE',  ( 1.000000000000000000, 0.000000000000000000, 0.000000000000000000 ) ) ;
#200 = EDGE_LOOP ( 'NONE', ( #208, #241 ) ) ;
#201 = EDGE_CURVE ( 'NONE', #19, #25, #267, .T. ) ;
#202 = CARTESIAN_POINT ( 'NONE',  ( 300.0000000000000000, 9.000000000000035527, 2.000000000000000000 ) ) ;
#203 = ORIENTED_EDGE ( 'NONE', *, *, #99, .F. ) ;
#204 = APPLICATION_PROTOCOL_DEFINITION ( 'international standard', 'config_control_design', 1994, #86 ) ;
#205 = AXIS2_PLACEMENT_3D ( 'NONE', #111, #51, #260 ) ;
#206 = DIRECTION ( 'NONE',  ( 1.000000000000000000, 0.000000000000000000, 0.000000000000000000 ) ) ;
#207 = ADVANCED_FACE ( 'NONE', ( #231 ), #340, .F. ) ;
#208 = ORIENTED_EDGE ( 'NONE', *, *, #383, .F. ) ;
#209 = APPROVAL_DATE_TIME ( #177, #305 ) ;
#210 = ADVANCED_FACE ( 'NONE', ( #319 ), #227, .F. ) ;
#211 = VERTEX_POINT ( 'NONE', #226 ) ;
#212 = PERSON_AND_ORGANIZATION ( #84, #359 ) ;
#213 = ORIENTED_EDGE ( 'NONE', *, *, #39, .F. ) ;
#214 = CONICAL_SURFACE ( 'NONE', #89, 5.199999999999996625, 0.7853981633974461696 ) ;
#215 = SECURITY_CLASSIFICATION ( '', '', #23 ) ;
#216 = EDGE_LOOP ( 'NONE', ( #234, #76, #178, #88 ) ) ;
#217 = EDGE_CURVE ( 'NONE', #137, #124, #72, .T. ) ;
#218 = CARTESIAN_POINT ( 'NONE',  ( -79.79999999999968452, 1.387778780781445676E-14, 2.000000000000000000 ) ) ;
#219 = CIRCLE ( 'NONE', #27, 3.200000000000008171 ) ;
#220 = CC_DESIGN_APPROVAL ( #79, ( #215 ) ) ;
#221 = LINE ( 'NONE', #65, #2 ) ;
#222 = DIRECTION ( 'NONE',  ( 0.000000000000000000, -0.000000000000000000, 1.000000000000000000 ) ) ;
#223 = CARTESIAN_POINT ( 'NONE',  ( 88.20000000000032969, 1.387778780781445676E-14, 0.000000000000000000 ) ) ;
#224 = PRODUCT_DEFINITION_FORMATION_WITH_SPECIFIED_SOURCE ( 'ANY', '', #96, .NOT_KNOWN. ) ;
#225 = PLANE ( 'NONE',  #128 ) ;
#226 = CARTESIAN_POINT ( 'NONE',  ( -300.0000000000001137, -9.000000000000035527, 0.000000000000000000 ) ) ;
#227 = PLANE ( 'NONE',  #205 ) ;
#228 = VERTEX_POINT ( 'NONE', #10 ) ;
#229 = FACE_OUTER_BOUND ( 'NONE', #243, .T. ) ;
#230 = EDGE_LOOP ( 'NONE', ( #11, #350 ) ) ;
#231 = FACE_OUTER_BOUND ( 'NONE', #109, .T. ) ;
#232 = VERTEX_POINT ( 'NONE', #364 ) ;
#233 = DATE_AND_TIME ( #154, #53 ) ;
#234 = ORIENTED_EDGE ( 'NONE', *, *, #373, .T. ) ;
#235 = DIRECTION ( 'NONE',  ( -0.000000000000000000, -0.000000000000000000, 1.000000000000000000 ) ) ;
#236 = CIRCLE ( 'NONE', #64, 3.200000000000008171 ) ;
#237 = ORIENTED_EDGE ( 'NONE', *, *, #335, .F. ) ;
#238 = VECTOR ( 'NONE', #369, 1000.000000000000000 ) ;
#239 = CC_DESIGN_PERSON_AND_ORGANIZATION_ASSIGNMENT ( #58, #121, ( #77 ) ) ;
#240 = COORDINATED_UNIVERSAL_TIME_OFFSET ( 1, 0, .AHEAD. ) ;
#241 = ORIENTED_EDGE ( 'NONE', *, *, #365, .F. ) ;
#242 = ADVANCED_FACE ( 'NONE', ( #375, #176, #134 ), #372, .T. ) ;
#243 = EDGE_LOOP ( 'NONE', ( #145, #57, #165, #175 ) ) ;
#244 = CIRCLE ( 'NONE', #13, 5.199999999999996625 ) ;
#245 = ORIENTED_EDGE ( 'NONE', *, *, #327, .T. ) ;
#246 = FACE_OUTER_BOUND ( 'NONE', #80, .T. ) ;
#247 = CARTESIAN_POINT ( 'NONE',  ( 300.0000000000000000, -8.999999999999960920, 2.000000000000000000 ) ) ;
#248 = LOCAL_TIME ( 13, 41, 22.00000000000000000, #240 ) ;
#249 = DIRECTION ( 'NONE',  ( -0.000000000000000000, -0.000000000000000000, 1.000000000000000000 ) ) ;
#250 = DIRECTION ( 'NONE',  ( 1.000000000000000000, 0.000000000000000000, 0.000000000000000000 ) ) ;
#251 = CARTESIAN_POINT ( 'NONE',  ( -90.19999999999969020, 1.451460414337108079E-14, 2.000000000000000000 ) ) ;
#252 = APPROVAL_STATUS ( 'not_yet_approved' ) ;
#253 = CIRCLE ( 'NONE', #136, 3.200000000000008171 ) ;
#254 = DIRECTION ( 'NONE',  ( -0.000000000000000000, -0.000000000000000000, 1.000000000000000000 ) ) ;
#255 = EDGE_LOOP ( 'NONE', ( #114, #173, #288, #299 ) ) ;
#256 = UNCERTAINTY_MEASURE_WITH_UNIT (LENGTH_MEASURE( 1.000000000000000082E-05 ), #345, 'distance_accuracy_value', 'NONE');
#257 = DIRECTION ( 'NONE',  ( -0.000000000000000000, -0.000000000000000000, -1.000000000000000000 ) ) ;
#258 = ORIENTED_EDGE ( 'NONE', *, *, #107, .F. ) ;
#259 = DIRECTION ( 'NONE',  ( 1.000000000000000000, 0.000000000000000000, 0.000000000000000000 ) ) ;
#260 = DIRECTION ( 'NONE',  ( 0.000000000000000000, 0.000000000000000000, 1.000000000000000000 ) ) ;
#261 = APPROVAL_PERSON_ORGANIZATION ( #67, #79, #331 ) ;
#262 = EDGE_LOOP ( 'NONE', ( #353, #346, #29, #120 ) ) ;
#263 = DIRECTION ( 'NONE',  ( -0.000000000000000000, -0.000000000000000000, 1.000000000000000000 ) ) ;
#264 = DATE_TIME_ROLE ( 'creation_date' ) ;
#265 = ORIENTED_EDGE ( 'NONE', *, *, #185, .T. ) ;
#266 = ADVANCED_FACE ( 'NONE', ( #143 ), #110, .F. ) ;
#267 = CIRCLE ( 'NONE', #149, 5.199999999999996625 ) ;
#268 = VERTEX_POINT ( 'NONE', #141 ) ;
#269 = ORIENTED_EDGE ( 'NONE', *, *, #9, .T. ) ;
#270 = PERSON_AND_ORGANIZATION ( #84, #359 ) ;
#271 = COORDINATED_UNIVERSAL_TIME_OFFSET ( 1, 0, .AHEAD. ) ;
#272 = VECTOR ( 'NONE', #306, 1000.000000000000000 ) ;
#273 = VECTOR ( 'NONE', #312, 1000.000000000000000 ) ;
#274 = CARTESIAN_POINT ( 'NONE',  ( 300.0000000000000000, 9.000000000000035527, 2.000000000000000000 ) ) ;
#275 = FACE_OUTER_BOUND ( 'NONE', #376, .T. ) ;
#276 = CC_DESIGN_PERSON_AND_ORGANIZATION_ASSIGNMENT ( #116, #183, ( #224 ) ) ;
#277 = CARTESIAN_POINT ( 'NONE',  ( -79.79999999999968452, 1.387778780781445676E-14, 2.000000000000000000 ) ) ;
#278 = CARTESIAN_POINT ( 'NONE',  ( 85.00000000000032685, 1.387778780781445676E-14, 2.000000000000000000 ) ) ;
#279 = LINE ( 'NONE', #63, #314 ) ;
#280 = LINE ( 'NONE', #106, #20 ) ;
#281 = ORIENTED_EDGE ( 'NONE', *, *, #144, .T. ) ;
#282 = AXIS2_PLACEMENT_3D ( 'NONE', #78, #254, #49 ) ;
#283 = FACE_OUTER_BOUND ( 'NONE', #142, .T. ) ;
#284 = VERTEX_POINT ( 'NONE', #138 ) ;
#285 = DIRECTION ( 'NONE',  ( -0.000000000000000000, -0.000000000000000000, 1.000000000000000000 ) ) ;
#286 = ORIENTED_EDGE ( 'NONE', *, *, #195, .F. ) ;
#287 = DIRECTION ( 'NONE',  ( 1.000000000000000000, 0.000000000000000000, 0.000000000000000000 ) ) ;
#288 = ORIENTED_EDGE ( 'NONE', *, *, #39, .T. ) ;
#289 = LINE ( 'NONE', #366, #273 ) ;
#290 = CONICAL_SURFACE ( 'NONE', #123, 5.199999999999996625, 0.7853981633974461696 ) ;
#291 = APPROVAL_PERSON_ORGANIZATION ( #354, #305, #179 ) ;
#292 =( NAMED_UNIT ( * ) SI_UNIT ( $, .STERADIAN. ) SOLID_ANGLE_UNIT ( ) );
#293 = ADVANCED_FACE ( 'NONE', ( #283 ), #225, .F. ) ;
#294 = ORIENTED_EDGE ( 'NONE', *, *, #335, .T. ) ;
#295 = CARTESIAN_POINT ( 'NONE',  ( 0.000000000000000000, 0.000000000000000000, 0.000000000000000000 ) ) ;
#296 = ORIENTED_EDGE ( 'NONE', *, *, #365, .T. ) ;
#297 = VECTOR ( 'NONE', #257, 1000.000000000000000 ) ;
#298 = CALENDAR_DATE ( 2023, 14, 11 ) ;
#299 = ORIENTED_EDGE ( 'NONE', *, *, #383, .T. ) ;
#300 = APPROVAL_STATUS ( 'not_yet_approved' ) ;
#301 = APPLICATION_CONTEXT ( 'configuration controlled 3d designs of mechanical parts and assemblies' ) ;
#302 = LINE ( 'NONE', #355, #371 ) ;
#303 = FACE_OUTER_BOUND ( 'NONE', #140, .T. ) ;
#304 = LINE ( 'NONE', #8, #187 ) ;
#305 = APPROVAL ( #300, 'UNSPECIFIED' ) ;
#306 = DIRECTION ( 'NONE',  ( -0.000000000000000000, -0.000000000000000000, -1.000000000000000000 ) ) ;
#307 = DIRECTION ( 'NONE',  ( -1.243218491116711587E-16, 1.000000000000000000, 0.000000000000000000 ) ) ;
#308 = VECTOR ( 'NONE', #132, 1000.000000000000114 ) ;
#309 = EDGE_CURVE ( 'NONE', #284, #382, #339, .T. ) ;
#310 = PLANE ( 'NONE',  #101 ) ;
#311 = CARTESIAN_POINT ( 'NONE',  ( -84.99999999999968736, 1.387778780781445676E-14, 0.000000000000000000 ) ) ;
#312 = DIRECTION ( 'NONE',  ( -0.000000000000000000, -0.000000000000000000, -1.000000000000000000 ) ) ;
#313 = ORIENTED_EDGE ( 'NONE', *, *, #144, .F. ) ;
#314 = VECTOR ( 'NONE', #3, 1000.000000000000000 ) ;
#315 = CARTESIAN_POINT ( 'NONE',  ( -300.0000000000001137, -9.000000000000035527, 2.000000000000000000 ) ) ;
#316 = ORIENTED_EDGE ( 'NONE', *, *, #373, .F. ) ;
#317 = EDGE_CURVE ( 'NONE', #15, #232, #289, .T. ) ;
#318 = DIRECTION ( 'NONE',  ( -0.000000000000000000, -0.000000000000000000, 1.000000000000000000 ) ) ;
#319 = FACE_OUTER_BOUND ( 'NONE', #216, .T. ) ;
#320 = CALENDAR_DATE ( 2023, 14, 11 ) ;
#321 = LOCAL_TIME ( 13, 41, 22.00000000000000000, #47 ) ;
#322 = DIRECTION ( 'NONE',  ( 0.000000000000000000, 0.000000000000000000, 1.000000000000000000 ) ) ;
#323 = APPROVAL_ROLE ( '' ) ;
#324 = APPROVAL_PERSON_ORGANIZATION ( #212, #93, #323 ) ;
#325 = ORIENTED_EDGE ( 'NONE', *, *, #201, .T. ) ;
#326 = LINE ( 'NONE', #36, #118 ) ;
#327 = EDGE_CURVE ( 'NONE', #117, #268, #253, .T. ) ;
#328 = CARTESIAN_POINT ( 'NONE',  ( 0.000000000000000000, 0.000000000000000000, 0.000000000000000000 ) ) ;
#329 = CARTESIAN_POINT ( 'NONE',  ( 85.00000000000032685, 1.387778780781445676E-14, 0.000000000000000000 ) ) ;
#330 = FACE_BOUND ( 'NONE', #230, .T. ) ;
#331 = APPROVAL_ROLE ( '' ) ;
#332 = CARTESIAN_POINT ( 'NONE',  ( 85.00000000000032685, 1.387778780781445676E-14, 0.000000000000000000 ) ) ;
#333 = EDGE_CURVE ( 'NONE', #232, #382, #44, .T. ) ;
#334 = CARTESIAN_POINT ( 'NONE',  ( -300.0000000000001137, 8.999999999999962697, 2.000000000000000000 ) ) ;
#335 = EDGE_CURVE ( 'NONE', #25, #19, #349, .T. ) ;
#336 = DIRECTION ( 'NONE',  ( 1.000000000000000000, 1.214306433183764966E-16, 0.000000000000000000 ) ) ;
#337 = DATE_AND_TIME ( #41, #321 ) ;
#338 = EDGE_CURVE ( 'NONE', #382, #211, #280, .T. ) ;
#339 = LINE ( 'NONE', #334, #297 ) ;
#340 = CONICAL_SURFACE ( 'NONE', #6, 5.199999999999996625, 0.7853981633974461696 ) ;
#341 = DIRECTION ( 'NONE',  ( -0.000000000000000000, -0.000000000000000000, 1.000000000000000000 ) ) ;
#342 = ORIENTED_EDGE ( 'NONE', *, *, #61, .T. ) ;
#343 = DIRECTION ( 'NONE',  ( 1.000000000000000000, 0.000000000000000000, -0.000000000000000000 ) ) ;
#344 = VERTEX_POINT ( 'NONE', #197 ) ;
#345 =( LENGTH_UNIT ( ) NAMED_UNIT ( * ) SI_UNIT ( .MILLI., .METRE. ) );
#346 = ORIENTED_EDGE ( 'NONE', *, *, #217, .T. ) ;
#347 = VECTOR ( 'NONE', #7, 1000.000000000000000 ) ;
#348 = MECHANICAL_CONTEXT ( 'NONE', #301, 'mechanical' ) ;
#349 = CIRCLE ( 'NONE', #363, 5.199999999999996625 ) ;
#350 = ORIENTED_EDGE ( 'NONE', *, *, #162, .T. ) ;
#351 = CALENDAR_DATE ( 2023, 14, 11 ) ;
#352 = LINE ( 'NONE', #83, #167 ) ;
#353 = ORIENTED_EDGE ( 'NONE', *, *, #126, .T. ) ;
#354 = PERSON_AND_ORGANIZATION ( #84, #359 ) ;
#355 = CARTESIAN_POINT ( 'NONE',  ( 79.80000000000032401, 1.451460414337108079E-14, 2.000000000000000000 ) ) ;
#356 = ADVANCED_FACE ( 'NONE', ( #229 ), #172, .F. ) ;
#357 = DIRECTION ( 'NONE',  ( -1.000000000000000000, -1.243218491116711587E-16, 0.000000000000000000 ) ) ;
#358 = CARTESIAN_POINT ( 'NONE',  ( 90.20000000000031548, 1.387778780781445676E-14, 2.000000000000000000 ) ) ;
#359 = ORGANIZATION ( 'UNSPECIFIED', 'UNSPECIFIED', '' ) ;
#360 = DIRECTION ( 'NONE',  ( 0.000000000000000000, -0.000000000000000000, 1.000000000000000000 ) ) ;
#361 = DIRECTION ( 'NONE',  ( 1.000000000000000000, 0.000000000000000000, 0.000000000000000000 ) ) ;
#362 = CARTESIAN_POINT ( 'NONE',  ( -88.19999999999969020, 1.439213946345634564E-14, 0.000000000000000000 ) ) ;
#363 = AXIS2_PLACEMENT_3D ( 'NONE', #74, #285, #139 ) ;
#364 = CARTESIAN_POINT ( 'NONE',  ( 300.0000000000000000, 9.000000000000035527, 0.000000000000000000 ) ) ;
#365 = EDGE_CURVE ( 'NONE', #184, #22, #244, .T. ) ;
#366 = CARTESIAN_POINT ( 'NONE',  ( 300.0000000000000000, 9.000000000000035527, 2.000000000000000000 ) ) ;
#367 = EDGE_LOOP ( 'NONE', ( #281, #258, #55, #265 ) ) ;
#368 = PRODUCT_RELATED_PRODUCT_CATEGORY ( 'detail', '', ( #96 ) ) ;
#369 = DIRECTION ( 'NONE',  ( -1.000000000000000000, -1.214306433183764966E-16, 0.000000000000000000 ) ) ;
#370 = ORIENTED_EDGE ( 'NONE', *, *, #162, .F. ) ;
#371 = VECTOR ( 'NONE', #32, 1000.000000000000114 ) ;
#372 = PLANE ( 'NONE',  #192 ) ;
#373 = EDGE_CURVE ( 'NONE', #344, #232, #352, .T. ) ;
#374 = ORIENTED_EDGE ( 'NONE', *, *, #327, .F. ) ;
#375 = FACE_BOUND ( 'NONE', #200, .T. ) ;
#376 = EDGE_LOOP ( 'NONE', ( #374, #168, #296, #213 ) ) ;
#377 = PERSON_AND_ORGANIZATION ( #84, #359 ) ;
#378 = ORIENTED_EDGE ( 'NONE', *, *, #338, .F. ) ;
#379 = CIRCLE ( 'NONE', #135, 3.200000000000008171 ) ;
#380 = DATE_AND_TIME ( #298, #182 ) ;
#381 = CIRCLE ( 'NONE', #102, 5.199999999999996625 ) ;
#382 = VERTEX_POINT ( 'NONE', #24 ) ;
#383 = EDGE_CURVE ( 'NONE', #22, #184, #381, .T. ) ;
#384 = PERSON_AND_ORGANIZATION_ROLE ( 'classification_officer' ) ;
#385 = ORIENTED_EDGE ( 'NONE', *, *, #309, .F. ) ;
ENDSEC;
END-ISO-10303-21;
