ISO-10303-21;
HEADER;
FILE_DESCRIPTION((''),'2;1');
FILE_NAME('ENTRETOISE','2023-11-07T14:26:44',('sebastien.carlier'),(''),
'CREO PARAMETRIC BY PTC INC, 2022014','CREO PARAMETRIC BY PTC INC, 2022014','');
FILE_SCHEMA(('CONFIG_CONTROL_DESIGN'));
ENDSEC;
DATA;
#1=CARTESIAN_POINT('',(0.E0,3.036103522886E-14,0.E0));
#2=DIRECTION('',(0.E0,0.E0,-1.E0));
#3=DIRECTION('',(1.E0,0.E0,0.E0));
#4=AXIS2_PLACEMENT_3D('',#1,#2,#3);
#6=CARTESIAN_POINT('',(0.E0,0.E0,0.E0));
#7=DIRECTION('',(0.E0,0.E0,-1.E0));
#8=DIRECTION('',(-1.E0,0.E0,0.E0));
#9=AXIS2_PLACEMENT_3D('',#6,#7,#8);
#11=CARTESIAN_POINT('',(0.E0,0.E0,0.E0));
#12=DIRECTION('',(0.E0,0.E0,1.E0));
#13=DIRECTION('',(-1.E0,0.E0,0.E0));
#14=AXIS2_PLACEMENT_3D('',#11,#12,#13);
#16=CARTESIAN_POINT('',(0.E0,0.E0,0.E0));
#17=DIRECTION('',(0.E0,0.E0,1.E0));
#18=DIRECTION('',(1.E0,0.E0,0.E0));
#19=AXIS2_PLACEMENT_3D('',#16,#17,#18);
#21=DIRECTION('',(7.071067811865E-1,-7.269471074116E-9,7.071067811865E-1));
#22=VECTOR('',#21,8.485281383347E-1);
#23=CARTESIAN_POINT('',(1.189999999696E1,2.907063268782E-8,-3.035450409546E-9));
#24=LINE('',#23,#22);
#25=DIRECTION('',(-7.071067811865E-1,7.269469152863E-9,7.071067811865E-1));
#26=VECTOR('',#25,8.485281383347E-1);
#27=CARTESIAN_POINT('',(-1.189999999696E1,-2.907063221923E-8,
-3.035450409546E-9));
#28=LINE('',#27,#26);
#29=CARTESIAN_POINT('',(0.E0,0.E0,3.18E1));
#30=DIRECTION('',(0.E0,0.E0,1.E0));
#31=DIRECTION('',(1.E0,0.E0,0.E0));
#32=AXIS2_PLACEMENT_3D('',#29,#30,#31);
#34=CARTESIAN_POINT('',(0.E0,0.E0,6.E-1));
#35=DIRECTION('',(0.E0,0.E0,-1.E0));
#36=DIRECTION('',(-1.E0,0.E0,0.E0));
#37=AXIS2_PLACEMENT_3D('',#34,#35,#36);
#39=DIRECTION('',(0.E0,0.E0,1.E0));
#40=VECTOR('',#39,3.120000000478E1);
#41=CARTESIAN_POINT('',(1.249999999761E1,2.290228193062E-8,5.999999976086E-1));
#42=LINE('',#41,#40);
#43=DIRECTION('',(7.071067811865E-1,-7.269472112122E-9,-7.071067811866E-1));
#44=VECTOR('',#43,8.485281383347E-1);
#45=CARTESIAN_POINT('',(1.189999999696E1,2.907063356860E-8,3.240000000304E1));
#46=LINE('',#45,#44);
#47=CARTESIAN_POINT('',(0.E0,3.036103522886E-14,3.24E1));
#48=DIRECTION('',(0.E0,0.E0,1.E0));
#49=DIRECTION('',(-1.E0,0.E0,0.E0));
#50=AXIS2_PLACEMENT_3D('',#47,#48,#49);
#52=CARTESIAN_POINT('',(0.E0,0.E0,3.24E1));
#53=DIRECTION('',(0.E0,0.E0,1.E0));
#54=DIRECTION('',(1.E0,0.E0,0.E0));
#55=AXIS2_PLACEMENT_3D('',#52,#53,#54);
#57=CARTESIAN_POINT('',(0.E0,0.E0,3.24E1));
#58=DIRECTION('',(0.E0,0.E0,-1.E0));
#59=DIRECTION('',(1.E0,0.E0,0.E0));
#60=AXIS2_PLACEMENT_3D('',#57,#58,#59);
#62=CARTESIAN_POINT('',(0.E0,0.E0,3.24E1));
#63=DIRECTION('',(0.E0,0.E0,-1.E0));
#64=DIRECTION('',(-1.E0,0.E0,0.E0));
#65=AXIS2_PLACEMENT_3D('',#62,#63,#64);
#67=DIRECTION('',(-7.071067811866E-1,7.269465314859E-9,-7.071067811865E-1));
#68=VECTOR('',#67,8.485281383347E-1);
#69=CARTESIAN_POINT('',(-1.189999999696E1,-2.907062341146E-8,3.240000000304E1));
#70=LINE('',#69,#68);
#71=CARTESIAN_POINT('',(0.E0,0.E0,3.18E1));
#72=DIRECTION('',(0.E0,0.E0,1.E0));
#73=DIRECTION('',(-1.E0,0.E0,0.E0));
#74=AXIS2_PLACEMENT_3D('',#71,#72,#73);
#76=CARTESIAN_POINT('',(0.E0,0.E0,6.E-1));
#77=DIRECTION('',(0.E0,0.E0,-1.E0));
#78=DIRECTION('',(1.E0,0.E0,0.E0));
#79=AXIS2_PLACEMENT_3D('',#76,#77,#78);
#81=DIRECTION('',(0.E0,0.E0,1.E0));
#82=VECTOR('',#81,3.120000000478E1);
#83=CARTESIAN_POINT('',(-1.249999999761E1,-2.290228309226E-8,
5.999999976086E-1));
#84=LINE('',#83,#82);
#85=DIRECTION('',(-7.071067811865E-1,3.621889106489E-9,-7.071067811866E-1));
#86=VECTOR('',#85,8.485281283910E-1);
#87=CARTESIAN_POINT('',(6.599999979926E0,-9.658865233389E-9,3.239999997993E1));
#88=LINE('',#87,#86);
#89=DIRECTION('',(7.071067811865E-1,-3.621889397984E-9,-7.071067811866E-1));
#90=VECTOR('',#89,8.485281283910E-1);
#91=CARTESIAN_POINT('',(-6.599999979926E0,9.658864963966E-9,3.239999997993E1));
#92=LINE('',#91,#90);
#93=CARTESIAN_POINT('',(0.E0,0.E0,3.18E1));
#94=DIRECTION('',(0.E0,0.E0,-1.E0));
#95=DIRECTION('',(-1.E0,0.E0,0.E0));
#96=AXIS2_PLACEMENT_3D('',#93,#94,#95);
#98=CARTESIAN_POINT('',(0.E0,0.E0,6.E-1));
#99=DIRECTION('',(0.E0,0.E0,1.E0));
#100=DIRECTION('',(1.E0,0.E0,0.E0));
#101=AXIS2_PLACEMENT_3D('',#98,#99,#100);
#103=DIRECTION('',(0.E0,0.E0,1.E0));
#104=VECTOR('',#103,3.119999997263E1);
#105=CARTESIAN_POINT('',(-5.999999986313E0,6.585589931856E-9,
6.000000136869E-1));
#106=LINE('',#105,#104);
#107=CARTESIAN_POINT('',(0.E0,0.E0,3.18E1));
#108=DIRECTION('',(0.E0,0.E0,-1.E0));
#109=DIRECTION('',(1.E0,0.E0,0.E0));
#110=AXIS2_PLACEMENT_3D('',#107,#108,#109);
#112=CARTESIAN_POINT('',(0.E0,0.E0,6.E-1));
#113=DIRECTION('',(0.E0,0.E0,1.E0));
#114=DIRECTION('',(-1.E0,0.E0,0.E0));
#115=AXIS2_PLACEMENT_3D('',#112,#113,#114);
#117=DIRECTION('',(0.E0,0.E0,1.E0));
#118=VECTOR('',#117,3.119999997263E1);
#119=CARTESIAN_POINT('',(5.999999986313E0,-6.585590448620E-9,
6.000000136869E-1));
#120=LINE('',#119,#118);
#121=DIRECTION('',(7.071067811865E-1,-3.621888246583E-9,7.071067811866E-1));
#122=VECTOR('',#121,8.485281283910E-1);
#123=CARTESIAN_POINT('',(-6.599999979926E0,9.658863986970E-9,
2.007410238036E-8));
#124=LINE('',#123,#122);
#125=DIRECTION('',(-7.071067811865E-1,3.621888530788E-9,7.071067811866E-1));
#126=VECTOR('',#125,8.485281283910E-1);
#127=CARTESIAN_POINT('',(6.599999979926E0,-9.658864744890E-9,
2.007410238036E-8));
#128=LINE('',#127,#126);
#129=CARTESIAN_POINT('',(-1.19E1,0.E0,3.24E1));
#130=CARTESIAN_POINT('',(1.19E1,0.E0,3.24E1));
#131=VERTEX_POINT('',#129);
#132=VERTEX_POINT('',#130);
#133=CARTESIAN_POINT('',(-1.25E1,0.E0,3.18E1));
#134=CARTESIAN_POINT('',(1.25E1,0.E0,3.18E1));
#135=VERTEX_POINT('',#133);
#136=VERTEX_POINT('',#134);
#137=CARTESIAN_POINT('',(6.6E0,0.E0,3.24E1));
#138=CARTESIAN_POINT('',(-6.6E0,0.E0,3.24E1));
#139=VERTEX_POINT('',#137);
#140=VERTEX_POINT('',#138);
#141=CARTESIAN_POINT('',(6.E0,0.E0,3.18E1));
#142=CARTESIAN_POINT('',(-6.E0,0.E0,3.18E1));
#143=VERTEX_POINT('',#141);
#144=VERTEX_POINT('',#142);
#145=CARTESIAN_POINT('',(1.19E1,0.E0,0.E0));
#146=CARTESIAN_POINT('',(-1.19E1,0.E0,0.E0));
#147=VERTEX_POINT('',#145);
#148=VERTEX_POINT('',#146);
#149=CARTESIAN_POINT('',(1.25E1,0.E0,6.E-1));
#150=CARTESIAN_POINT('',(-1.25E1,0.E0,6.E-1));
#151=VERTEX_POINT('',#149);
#152=VERTEX_POINT('',#150);
#153=CARTESIAN_POINT('',(-6.6E0,0.E0,0.E0));
#154=CARTESIAN_POINT('',(6.6E0,0.E0,0.E0));
#155=VERTEX_POINT('',#153);
#156=VERTEX_POINT('',#154);
#157=CARTESIAN_POINT('',(-6.E0,0.E0,6.E-1));
#158=CARTESIAN_POINT('',(6.E0,0.E0,6.E-1));
#159=VERTEX_POINT('',#157);
#160=VERTEX_POINT('',#158);
#161=CARTESIAN_POINT('',(0.E0,0.E0,0.E0));
#162=DIRECTION('',(0.E0,0.E0,1.E0));
#163=DIRECTION('',(1.E0,0.E0,0.E0));
#164=AXIS2_PLACEMENT_3D('',#161,#162,#163);
#165=PLANE('',#164);
#167=ORIENTED_EDGE('',*,*,#166,.F.);
#169=ORIENTED_EDGE('',*,*,#168,.F.);
#170=EDGE_LOOP('',(#167,#169));
#171=FACE_OUTER_BOUND('',#170,.F.);
#173=ORIENTED_EDGE('',*,*,#172,.F.);
#175=ORIENTED_EDGE('',*,*,#174,.F.);
#176=EDGE_LOOP('',(#173,#175));
#177=FACE_BOUND('',#176,.F.);
#178=ADVANCED_FACE('',(#171,#177),#165,.F.);
#179=CARTESIAN_POINT('',(0.E0,3.036103522886E-14,2.999999973640E-1));
#180=DIRECTION('',(0.E0,0.E0,1.E0));
#181=DIRECTION('',(0.E0,-1.E0,0.E0));
#182=AXIS2_PLACEMENT_3D('',#179,#180,#181);
#183=CONICAL_SURFACE('',#182,1.219999999736E1,4.5E1);
#184=ORIENTED_EDGE('',*,*,#166,.T.);
#186=ORIENTED_EDGE('',*,*,#185,.T.);
#188=ORIENTED_EDGE('',*,*,#187,.F.);
#190=ORIENTED_EDGE('',*,*,#189,.F.);
#191=EDGE_LOOP('',(#184,#186,#188,#190));
#192=FACE_OUTER_BOUND('',#191,.F.);
#193=ADVANCED_FACE('',(#192),#183,.T.);
#194=CARTESIAN_POINT('',(0.E0,0.E0,2.999999973640E-1));
#195=DIRECTION('',(0.E0,0.E0,1.E0));
#196=DIRECTION('',(0.E0,-1.E0,0.E0));
#197=AXIS2_PLACEMENT_3D('',#194,#195,#196);
#198=CONICAL_SURFACE('',#197,1.219999999736E1,4.5E1);
#199=ORIENTED_EDGE('',*,*,#168,.T.);
#200=ORIENTED_EDGE('',*,*,#189,.T.);
#202=ORIENTED_EDGE('',*,*,#201,.F.);
#203=ORIENTED_EDGE('',*,*,#185,.F.);
#204=EDGE_LOOP('',(#199,#200,#202,#203));
#205=FACE_OUTER_BOUND('',#204,.F.);
#206=ADVANCED_FACE('',(#205),#198,.T.);
#207=CARTESIAN_POINT('',(0.E0,0.E0,0.E0));
#208=DIRECTION('',(0.E0,0.E0,1.E0));
#209=DIRECTION('',(1.E0,0.E0,0.E0));
#210=AXIS2_PLACEMENT_3D('',#207,#208,#209);
#211=CYLINDRICAL_SURFACE('',#210,1.25E1);
#213=ORIENTED_EDGE('',*,*,#212,.T.);
#215=ORIENTED_EDGE('',*,*,#214,.F.);
#216=ORIENTED_EDGE('',*,*,#201,.T.);
#218=ORIENTED_EDGE('',*,*,#217,.T.);
#219=EDGE_LOOP('',(#213,#215,#216,#218));
#220=FACE_OUTER_BOUND('',#219,.F.);
#221=ADVANCED_FACE('',(#220),#211,.T.);
#222=CARTESIAN_POINT('',(0.E0,0.E0,3.210000000264E1));
#223=DIRECTION('',(0.E0,0.E0,-1.E0));
#224=DIRECTION('',(0.E0,-1.E0,0.E0));
#225=AXIS2_PLACEMENT_3D('',#222,#223,#224);
#226=CONICAL_SURFACE('',#225,1.219999999736E1,4.5E1);
#228=ORIENTED_EDGE('',*,*,#227,.T.);
#230=ORIENTED_EDGE('',*,*,#229,.T.);
#231=ORIENTED_EDGE('',*,*,#212,.F.);
#233=ORIENTED_EDGE('',*,*,#232,.F.);
#234=EDGE_LOOP('',(#228,#230,#231,#233));
#235=FACE_OUTER_BOUND('',#234,.F.);
#236=ADVANCED_FACE('',(#235),#226,.T.);
#237=CARTESIAN_POINT('',(0.E0,0.E0,3.24E1));
#238=DIRECTION('',(0.E0,0.E0,1.E0));
#239=DIRECTION('',(1.E0,0.E0,0.E0));
#240=AXIS2_PLACEMENT_3D('',#237,#238,#239);
#241=PLANE('',#240);
#243=ORIENTED_EDGE('',*,*,#242,.F.);
#244=ORIENTED_EDGE('',*,*,#227,.F.);
#245=EDGE_LOOP('',(#243,#244));
#246=FACE_OUTER_BOUND('',#245,.F.);
#248=ORIENTED_EDGE('',*,*,#247,.F.);
#250=ORIENTED_EDGE('',*,*,#249,.F.);
#251=EDGE_LOOP('',(#248,#250));
#252=FACE_BOUND('',#251,.F.);
#253=ADVANCED_FACE('',(#246,#252),#241,.T.);
#254=CARTESIAN_POINT('',(0.E0,3.036103522886E-14,3.210000000264E1));
#255=DIRECTION('',(0.E0,0.E0,-1.E0));
#256=DIRECTION('',(0.E0,-1.E0,0.E0));
#257=AXIS2_PLACEMENT_3D('',#254,#255,#256);
#258=CONICAL_SURFACE('',#257,1.219999999736E1,4.5E1);
#259=ORIENTED_EDGE('',*,*,#242,.T.);
#260=ORIENTED_EDGE('',*,*,#232,.T.);
#262=ORIENTED_EDGE('',*,*,#261,.F.);
#263=ORIENTED_EDGE('',*,*,#229,.F.);
#264=EDGE_LOOP('',(#259,#260,#262,#263));
#265=FACE_OUTER_BOUND('',#264,.F.);
#266=ADVANCED_FACE('',(#265),#258,.T.);
#267=CARTESIAN_POINT('',(0.E0,0.E0,0.E0));
#268=DIRECTION('',(0.E0,0.E0,1.E0));
#269=DIRECTION('',(1.E0,0.E0,0.E0));
#270=AXIS2_PLACEMENT_3D('',#267,#268,#269);
#271=CYLINDRICAL_SURFACE('',#270,1.25E1);
#272=ORIENTED_EDGE('',*,*,#261,.T.);
#273=ORIENTED_EDGE('',*,*,#217,.F.);
#274=ORIENTED_EDGE('',*,*,#187,.T.);
#275=ORIENTED_EDGE('',*,*,#214,.T.);
#276=EDGE_LOOP('',(#272,#273,#274,#275));
#277=FACE_OUTER_BOUND('',#276,.F.);
#278=ADVANCED_FACE('',(#277),#271,.T.);
#279=CARTESIAN_POINT('',(0.E0,0.E0,3.209999998480E1));
#280=DIRECTION('',(0.E0,0.E0,1.E0));
#281=DIRECTION('',(0.E0,-1.E0,0.E0));
#282=AXIS2_PLACEMENT_3D('',#279,#280,#281);
#283=CONICAL_SURFACE('',#282,6.299999984800E0,4.5E1);
#284=ORIENTED_EDGE('',*,*,#247,.T.);
#286=ORIENTED_EDGE('',*,*,#285,.T.);
#288=ORIENTED_EDGE('',*,*,#287,.F.);
#290=ORIENTED_EDGE('',*,*,#289,.F.);
#291=EDGE_LOOP('',(#284,#286,#288,#290));
#292=FACE_OUTER_BOUND('',#291,.F.);
#293=ADVANCED_FACE('',(#292),#283,.F.);
#294=CARTESIAN_POINT('',(0.E0,0.E0,3.209999998480E1));
#295=DIRECTION('',(0.E0,0.E0,1.E0));
#296=DIRECTION('',(0.E0,-1.E0,0.E0));
#297=AXIS2_PLACEMENT_3D('',#294,#295,#296);
#298=CONICAL_SURFACE('',#297,6.299999984800E0,4.5E1);
#299=ORIENTED_EDGE('',*,*,#249,.T.);
#300=ORIENTED_EDGE('',*,*,#289,.T.);
#302=ORIENTED_EDGE('',*,*,#301,.F.);
#303=ORIENTED_EDGE('',*,*,#285,.F.);
#304=EDGE_LOOP('',(#299,#300,#302,#303));
#305=FACE_OUTER_BOUND('',#304,.F.);
#306=ADVANCED_FACE('',(#305),#298,.F.);
#307=CARTESIAN_POINT('',(0.E0,0.E0,0.E0));
#308=DIRECTION('',(0.E0,0.E0,1.E0));
#309=DIRECTION('',(1.E0,0.E0,0.E0));
#310=AXIS2_PLACEMENT_3D('',#307,#308,#309);
#311=CYLINDRICAL_SURFACE('',#310,6.E0);
#312=ORIENTED_EDGE('',*,*,#301,.T.);
#314=ORIENTED_EDGE('',*,*,#313,.F.);
#316=ORIENTED_EDGE('',*,*,#315,.T.);
#318=ORIENTED_EDGE('',*,*,#317,.T.);
#319=EDGE_LOOP('',(#312,#314,#316,#318));
#320=FACE_OUTER_BOUND('',#319,.F.);
#321=ADVANCED_FACE('',(#320),#311,.F.);
#322=CARTESIAN_POINT('',(0.E0,0.E0,0.E0));
#323=DIRECTION('',(0.E0,0.E0,1.E0));
#324=DIRECTION('',(1.E0,0.E0,0.E0));
#325=AXIS2_PLACEMENT_3D('',#322,#323,#324);
#326=CYLINDRICAL_SURFACE('',#325,6.E0);
#327=ORIENTED_EDGE('',*,*,#287,.T.);
#328=ORIENTED_EDGE('',*,*,#317,.F.);
#330=ORIENTED_EDGE('',*,*,#329,.T.);
#331=ORIENTED_EDGE('',*,*,#313,.T.);
#332=EDGE_LOOP('',(#327,#328,#330,#331));
#333=FACE_OUTER_BOUND('',#332,.F.);
#334=ADVANCED_FACE('',(#333),#326,.F.);
#335=CARTESIAN_POINT('',(0.E0,0.E0,3.000000152002E-1));
#336=DIRECTION('',(0.E0,0.E0,-1.E0));
#337=DIRECTION('',(0.E0,-1.E0,0.E0));
#338=AXIS2_PLACEMENT_3D('',#335,#336,#337);
#339=CONICAL_SURFACE('',#338,6.299999984800E0,4.5E1);
#340=ORIENTED_EDGE('',*,*,#172,.T.);
#342=ORIENTED_EDGE('',*,*,#341,.T.);
#343=ORIENTED_EDGE('',*,*,#329,.F.);
#345=ORIENTED_EDGE('',*,*,#344,.F.);
#346=EDGE_LOOP('',(#340,#342,#343,#345));
#347=FACE_OUTER_BOUND('',#346,.F.);
#348=ADVANCED_FACE('',(#347),#339,.F.);
#349=CARTESIAN_POINT('',(0.E0,0.E0,3.000000152002E-1));
#350=DIRECTION('',(0.E0,0.E0,-1.E0));
#351=DIRECTION('',(0.E0,-1.E0,0.E0));
#352=AXIS2_PLACEMENT_3D('',#349,#350,#351);
#353=CONICAL_SURFACE('',#352,6.299999984800E0,4.5E1);
#354=ORIENTED_EDGE('',*,*,#174,.T.);
#355=ORIENTED_EDGE('',*,*,#344,.T.);
#356=ORIENTED_EDGE('',*,*,#315,.F.);
#357=ORIENTED_EDGE('',*,*,#341,.F.);
#358=EDGE_LOOP('',(#354,#355,#356,#357));
#359=FACE_OUTER_BOUND('',#358,.F.);
#360=ADVANCED_FACE('',(#359),#353,.F.);
#364=DIMENSIONAL_EXPONENTS(0.E0,0.E0,0.E0,0.E0,0.E0,0.E0,0.E0);
#366=PLANE_ANGLE_MEASURE_WITH_UNIT(PLANE_ANGLE_MEASURE(1.745329251994E-2),#365);
#367=(CONVERSION_BASED_UNIT('DEGREE',#366)NAMED_UNIT(*)PLANE_ANGLE_UNIT());
#369=UNCERTAINTY_MEASURE_WITH_UNIT(LENGTH_MEASURE(1.E-2),#363,'closure',
'Maximum model space distance between geometric entities at asserted connectivities');
#370=(GEOMETRIC_REPRESENTATION_CONTEXT(3)GLOBAL_UNCERTAINTY_ASSIGNED_CONTEXT((
#369))GLOBAL_UNIT_ASSIGNED_CONTEXT((#363,#367,#368))REPRESENTATION_CONTEXT
('ID1','3'));
#372=APPLICATION_CONTEXT(
'CONFIGURATION CONTROLLED 3D DESIGNS OF MECHANICAL PARTS AND ASSEMBLIES');
#373=APPLICATION_PROTOCOL_DEFINITION('international standard',
'config_control_design',1994,#372);
#374=DESIGN_CONTEXT('',#372,'design');
#375=MECHANICAL_CONTEXT('',#372,'mechanical');
#376=PRODUCT('ENTRETOISE','ENTRETOISE','NOT SPECIFIED',(#375));
#377=PRODUCT_DEFINITION_FORMATION_WITH_SPECIFIED_SOURCE('3','LAST_VERSION',#376,
.MADE.);
#381=PRODUCT_CATEGORY('part','');
#382=PRODUCT_RELATED_PRODUCT_CATEGORY('detail','',(#376));
#383=PRODUCT_CATEGORY_RELATIONSHIP('','',#381,#382);
#384=SECURITY_CLASSIFICATION_LEVEL('unclassified');
#385=SECURITY_CLASSIFICATION('','',#384);
#386=CC_DESIGN_SECURITY_CLASSIFICATION(#385,(#377));
#387=APPROVAL_STATUS('approved');
#388=APPROVAL(#387,'');
#389=CC_DESIGN_APPROVAL(#388,(#385,#377,#378));
#390=CALENDAR_DATE(123,7,11);
#391=COORDINATED_UNIVERSAL_TIME_OFFSET(1,0,.AHEAD.);
#392=LOCAL_TIME(14,26,4.4E1,#391);
#393=DATE_AND_TIME(#390,#392);
#394=APPROVAL_DATE_TIME(#393,#388);
#395=DATE_TIME_ROLE('creation_date');
#396=CC_DESIGN_DATE_AND_TIME_ASSIGNMENT(#393,#395,(#378));
#397=DATE_TIME_ROLE('classification_date');
#398=CC_DESIGN_DATE_AND_TIME_ASSIGNMENT(#393,#397,(#385));
#399=PERSON('UNSPECIFIED','UNSPECIFIED',$,$,$,$);
#400=ORGANIZATION('UNSPECIFIED','UNSPECIFIED','UNSPECIFIED');
#401=PERSON_AND_ORGANIZATION(#399,#400);
#402=APPROVAL_ROLE('approver');
#403=APPROVAL_PERSON_ORGANIZATION(#401,#388,#402);
#404=PERSON_AND_ORGANIZATION_ROLE('creator');
#405=CC_DESIGN_PERSON_AND_ORGANIZATION_ASSIGNMENT(#401,#404,(#377,#378));
#406=PERSON_AND_ORGANIZATION_ROLE('design_supplier');
#407=CC_DESIGN_PERSON_AND_ORGANIZATION_ASSIGNMENT(#401,#406,(#377));
#408=PERSON_AND_ORGANIZATION_ROLE('classification_officer');
#409=CC_DESIGN_PERSON_AND_ORGANIZATION_ASSIGNMENT(#401,#408,(#385));
#410=PERSON_AND_ORGANIZATION_ROLE('design_owner');
#411=CC_DESIGN_PERSON_AND_ORGANIZATION_ASSIGNMENT(#401,#410,(#376));
#5=CIRCLE('',#4,1.19E1);
#10=CIRCLE('',#9,1.19E1);
#15=CIRCLE('',#14,6.6E0);
#20=CIRCLE('',#19,6.6E0);
#33=CIRCLE('',#32,1.25E1);
#38=CIRCLE('',#37,1.25E1);
#51=CIRCLE('',#50,1.19E1);
#56=CIRCLE('',#55,1.19E1);
#61=CIRCLE('',#60,6.6E0);
#66=CIRCLE('',#65,6.6E0);
#75=CIRCLE('',#74,1.25E1);
#80=CIRCLE('',#79,1.25E1);
#97=CIRCLE('',#96,6.E0);
#102=CIRCLE('',#101,6.E0);
#111=CIRCLE('',#110,6.E0);
#116=CIRCLE('',#115,6.E0);
#166=EDGE_CURVE('',#147,#148,#5,.T.);
#168=EDGE_CURVE('',#148,#147,#10,.T.);
#172=EDGE_CURVE('',#155,#156,#15,.T.);
#174=EDGE_CURVE('',#156,#155,#20,.T.);
#185=EDGE_CURVE('',#148,#152,#28,.T.);
#187=EDGE_CURVE('',#151,#152,#80,.T.);
#189=EDGE_CURVE('',#147,#151,#24,.T.);
#201=EDGE_CURVE('',#152,#151,#38,.T.);
#212=EDGE_CURVE('',#136,#135,#33,.T.);
#214=EDGE_CURVE('',#152,#135,#84,.T.);
#217=EDGE_CURVE('',#151,#136,#42,.T.);
#227=EDGE_CURVE('',#132,#131,#56,.T.);
#229=EDGE_CURVE('',#131,#135,#70,.T.);
#232=EDGE_CURVE('',#132,#136,#46,.T.);
#242=EDGE_CURVE('',#131,#132,#51,.T.);
#247=EDGE_CURVE('',#139,#140,#61,.T.);
#249=EDGE_CURVE('',#140,#139,#66,.T.);
#261=EDGE_CURVE('',#135,#136,#75,.T.);
#285=EDGE_CURVE('',#140,#144,#92,.T.);
#287=EDGE_CURVE('',#143,#144,#111,.T.);
#289=EDGE_CURVE('',#139,#143,#88,.T.);
#301=EDGE_CURVE('',#144,#143,#97,.T.);
#313=EDGE_CURVE('',#160,#143,#120,.T.);
#315=EDGE_CURVE('',#160,#159,#102,.T.);
#317=EDGE_CURVE('',#159,#144,#106,.T.);
#329=EDGE_CURVE('',#159,#160,#116,.T.);
#341=EDGE_CURVE('',#156,#160,#128,.T.);
#344=EDGE_CURVE('',#155,#159,#124,.T.);
#361=CLOSED_SHELL('',(#178,#193,#206,#221,#236,#253,#266,#278,#293,#306,#321,
#334,#348,#360));
#362=MANIFOLD_SOLID_BREP('',#361);
#363=(LENGTH_UNIT()NAMED_UNIT(*)SI_UNIT(.MILLI.,.METRE.));
#365=(NAMED_UNIT(*)PLANE_ANGLE_UNIT()SI_UNIT($,.RADIAN.));
#368=(NAMED_UNIT(*)SI_UNIT($,.STERADIAN.)SOLID_ANGLE_UNIT());
#371=ADVANCED_BREP_SHAPE_REPRESENTATION('',(#362),#370);
#378=PRODUCT_DEFINITION('design','',#377,#374);
#379=PRODUCT_DEFINITION_SHAPE('','SHAPE FOR ENTRETOISE.',#378);
#380=SHAPE_DEFINITION_REPRESENTATION(#379,#371);
ENDSEC;
END-ISO-10303-21;
