ISO-10303-21;
HEADER;
/* Generated by software containing ST-Developer
 * from STEP Tools, Inc. (www.steptools.com) 
 */

FILE_DESCRIPTION(
/* description */ (''),
/* implementation_level */ '2;1');

FILE_NAME(
/* name */ 'DronePiece2b.step',
/* time_stamp */ '2023-11-03T15:31:00+01:00',
/* author */ (''),
/* organization */ (''),
/* preprocessor_version */ 'ST-DEVELOPER v20',
/* originating_system */ 'Autodesk Translation Framework v12.14.0.127',

/* authorisation */ '');

FILE_SCHEMA (('AUTOMOTIVE_DESIGN { 1 0 10303 214 3 1 1 }'));
ENDSEC;

DATA;
#10=MECHANICAL_DESIGN_GEOMETRIC_PRESENTATION_REPRESENTATION('',(#13),#572);
#11=SHAPE_REPRESENTATION_RELATIONSHIP('SRR','None',#579,#12);
#12=ADVANCED_BREP_SHAPE_REPRESENTATION('',(#14),#571);
#13=STYLED_ITEM('',(#589),#14);
#14=MANIFOLD_SOLID_BREP('Corps1',#328);
#15=CYLINDRICAL_SURFACE('',#355,1.49999999999999);
#16=CYLINDRICAL_SURFACE('',#357,1.5);
#17=CYLINDRICAL_SURFACE('',#367,6.75);
#18=CYLINDRICAL_SURFACE('',#369,4.99999999999996);
#19=CYLINDRICAL_SURFACE('',#370,13.8086425983384);
#20=CYLINDRICAL_SURFACE('',#371,13.8086425983382);
#21=CYLINDRICAL_SURFACE('',#372,4.99999999999996);
#22=CYLINDRICAL_SURFACE('',#374,3.);
#23=CYLINDRICAL_SURFACE('',#376,3.00000000000001);
#24=FACE_BOUND('',#64,.T.);
#25=FACE_BOUND('',#66,.T.);
#26=FACE_BOUND('',#74,.T.);
#27=FACE_BOUND('',#80,.T.);
#28=CIRCLE('',#343,1.5);
#29=CIRCLE('',#345,1.49999999999999);
#30=CIRCLE('',#348,3.);
#31=CIRCLE('',#349,4.99999999999996);
#32=CIRCLE('',#350,13.8086425983382);
#33=CIRCLE('',#351,13.8086425983384);
#34=CIRCLE('',#352,4.99999999999996);
#35=CIRCLE('',#353,3.00000000000001);
#36=CIRCLE('',#354,6.75);
#37=CIRCLE('',#356,1.49999999999999);
#38=CIRCLE('',#358,1.5);
#39=CIRCLE('',#360,6.75);
#40=CIRCLE('',#361,3.00000000000001);
#41=CIRCLE('',#362,4.99999999999996);
#42=CIRCLE('',#363,13.8086425983384);
#43=CIRCLE('',#364,13.8086425983382);
#44=CIRCLE('',#365,4.99999999999996);
#45=CIRCLE('',#366,3.);
#46=FACE_OUTER_BOUND('',#63,.T.);
#47=FACE_OUTER_BOUND('',#65,.T.);
#48=FACE_OUTER_BOUND('',#67,.T.);
#49=FACE_OUTER_BOUND('',#68,.T.);
#50=FACE_OUTER_BOUND('',#69,.T.);
#51=FACE_OUTER_BOUND('',#70,.T.);
#52=FACE_OUTER_BOUND('',#71,.T.);
#53=FACE_OUTER_BOUND('',#72,.T.);
#54=FACE_OUTER_BOUND('',#73,.T.);
#55=FACE_OUTER_BOUND('',#75,.T.);
#56=FACE_OUTER_BOUND('',#76,.T.);
#57=FACE_OUTER_BOUND('',#77,.T.);
#58=FACE_OUTER_BOUND('',#78,.T.);
#59=FACE_OUTER_BOUND('',#79,.T.);
#60=FACE_OUTER_BOUND('',#81,.T.);
#61=FACE_OUTER_BOUND('',#82,.T.);
#62=FACE_OUTER_BOUND('',#83,.T.);
#63=EDGE_LOOP('',(#213,#214,#215,#216));
#64=EDGE_LOOP('',(#217));
#65=EDGE_LOOP('',(#218,#219,#220,#221));
#66=EDGE_LOOP('',(#222));
#67=EDGE_LOOP('',(#223,#224,#225,#226));
#68=EDGE_LOOP('',(#227,#228,#229,#230,#231,#232,#233,#234,#235,#236,#237,
#238,#239));
#69=EDGE_LOOP('',(#240,#241,#242,#243));
#70=EDGE_LOOP('',(#244,#245,#246,#247));
#71=EDGE_LOOP('',(#248,#249,#250,#251,#252,#253,#254,#255,#256,#257,#258,
#259,#260));
#72=EDGE_LOOP('',(#261,#262,#263,#264));
#73=EDGE_LOOP('',(#265,#266,#267,#268));
#74=EDGE_LOOP('',(#269));
#75=EDGE_LOOP('',(#270,#271,#272,#273));
#76=EDGE_LOOP('',(#274,#275,#276,#277));
#77=EDGE_LOOP('',(#278,#279,#280,#281));
#78=EDGE_LOOP('',(#282,#283,#284,#285));
#79=EDGE_LOOP('',(#286,#287,#288,#289));
#80=EDGE_LOOP('',(#290));
#81=EDGE_LOOP('',(#291,#292,#293,#294));
#82=EDGE_LOOP('',(#295,#296,#297,#298));
#83=EDGE_LOOP('',(#299,#300,#301,#302));
#84=LINE('',#480,#111);
#85=LINE('',#482,#112);
#86=LINE('',#484,#113);
#87=LINE('',#485,#114);
#88=LINE('',#491,#115);
#89=LINE('',#493,#116);
#90=LINE('',#495,#117);
#91=LINE('',#496,#118);
#92=LINE('',#501,#119);
#93=LINE('',#503,#120);
#94=LINE('',#504,#121);
#95=LINE('',#509,#122);
#96=LINE('',#519,#123);
#97=LINE('',#522,#124);
#98=LINE('',#527,#125);
#99=LINE('',#531,#126);
#100=LINE('',#535,#127);
#101=LINE('',#539,#128);
#102=LINE('',#549,#129);
#103=LINE('',#553,#130);
#104=LINE('',#554,#131);
#105=LINE('',#556,#132);
#106=LINE('',#558,#133);
#107=LINE('',#560,#134);
#108=LINE('',#562,#135);
#109=LINE('',#564,#136);
#110=LINE('',#567,#137);
#111=VECTOR('',#381,10.);
#112=VECTOR('',#382,10.);
#113=VECTOR('',#383,10.);
#114=VECTOR('',#384,10.);
#115=VECTOR('',#389,10.);
#116=VECTOR('',#390,10.);
#117=VECTOR('',#391,10.);
#118=VECTOR('',#392,10.);
#119=VECTOR('',#397,10.);
#120=VECTOR('',#398,10.);
#121=VECTOR('',#399,10.);
#122=VECTOR('',#404,10.);
#123=VECTOR('',#413,10.);
#124=VECTOR('',#416,10.);
#125=VECTOR('',#423,1.49999999999999);
#126=VECTOR('',#428,1.5);
#127=VECTOR('',#433,10.);
#128=VECTOR('',#436,10.);
#129=VECTOR('',#445,10.);
#130=VECTOR('',#452,10.);
#131=VECTOR('',#453,10.);
#132=VECTOR('',#456,10.);
#133=VECTOR('',#459,10.);
#134=VECTOR('',#462,10.);
#135=VECTOR('',#465,10.);
#136=VECTOR('',#468,10.);
#137=VECTOR('',#473,10.);
#138=VERTEX_POINT('',#478);
#139=VERTEX_POINT('',#479);
#140=VERTEX_POINT('',#481);
#141=VERTEX_POINT('',#483);
#142=VERTEX_POINT('',#486);
#143=VERTEX_POINT('',#489);
#144=VERTEX_POINT('',#490);
#145=VERTEX_POINT('',#492);
#146=VERTEX_POINT('',#494);
#147=VERTEX_POINT('',#497);
#148=VERTEX_POINT('',#500);
#149=VERTEX_POINT('',#502);
#150=VERTEX_POINT('',#506);
#151=VERTEX_POINT('',#508);
#152=VERTEX_POINT('',#510);
#153=VERTEX_POINT('',#512);
#154=VERTEX_POINT('',#514);
#155=VERTEX_POINT('',#516);
#156=VERTEX_POINT('',#518);
#157=VERTEX_POINT('',#520);
#158=VERTEX_POINT('',#525);
#159=VERTEX_POINT('',#529);
#160=VERTEX_POINT('',#534);
#161=VERTEX_POINT('',#536);
#162=VERTEX_POINT('',#538);
#163=VERTEX_POINT('',#540);
#164=VERTEX_POINT('',#542);
#165=VERTEX_POINT('',#544);
#166=VERTEX_POINT('',#546);
#167=VERTEX_POINT('',#548);
#168=EDGE_CURVE('',#138,#139,#84,.T.);
#169=EDGE_CURVE('',#140,#138,#85,.T.);
#170=EDGE_CURVE('',#141,#140,#86,.T.);
#171=EDGE_CURVE('',#139,#141,#87,.T.);
#172=EDGE_CURVE('',#142,#142,#28,.T.);
#173=EDGE_CURVE('',#143,#144,#88,.T.);
#174=EDGE_CURVE('',#145,#143,#89,.T.);
#175=EDGE_CURVE('',#146,#145,#90,.T.);
#176=EDGE_CURVE('',#144,#146,#91,.T.);
#177=EDGE_CURVE('',#147,#147,#29,.T.);
#178=EDGE_CURVE('',#148,#143,#92,.T.);
#179=EDGE_CURVE('',#148,#149,#93,.T.);
#180=EDGE_CURVE('',#145,#149,#94,.T.);
#181=EDGE_CURVE('',#149,#150,#30,.T.);
#182=EDGE_CURVE('',#150,#151,#95,.T.);
#183=EDGE_CURVE('',#151,#152,#31,.T.);
#184=EDGE_CURVE('',#152,#153,#32,.T.);
#185=EDGE_CURVE('',#153,#154,#33,.T.);
#186=EDGE_CURVE('',#154,#155,#34,.T.);
#187=EDGE_CURVE('',#155,#156,#96,.T.);
#188=EDGE_CURVE('',#156,#157,#35,.T.);
#189=EDGE_CURVE('',#157,#141,#97,.T.);
#190=EDGE_CURVE('',#140,#146,#36,.T.);
#191=EDGE_CURVE('',#158,#158,#37,.T.);
#192=EDGE_CURVE('',#158,#147,#98,.T.);
#193=EDGE_CURVE('',#159,#159,#38,.T.);
#194=EDGE_CURVE('',#159,#142,#99,.T.);
#195=EDGE_CURVE('',#144,#138,#39,.T.);
#196=EDGE_CURVE('',#139,#160,#100,.T.);
#197=EDGE_CURVE('',#160,#161,#40,.T.);
#198=EDGE_CURVE('',#161,#162,#101,.T.);
#199=EDGE_CURVE('',#162,#163,#41,.T.);
#200=EDGE_CURVE('',#163,#164,#42,.T.);
#201=EDGE_CURVE('',#164,#165,#43,.T.);
#202=EDGE_CURVE('',#165,#166,#44,.T.);
#203=EDGE_CURVE('',#166,#167,#102,.T.);
#204=EDGE_CURVE('',#167,#148,#45,.T.);
#205=EDGE_CURVE('',#156,#161,#103,.T.);
#206=EDGE_CURVE('',#162,#155,#104,.T.);
#207=EDGE_CURVE('',#163,#154,#105,.T.);
#208=EDGE_CURVE('',#164,#153,#106,.T.);
#209=EDGE_CURVE('',#165,#152,#107,.T.);
#210=EDGE_CURVE('',#166,#151,#108,.T.);
#211=EDGE_CURVE('',#167,#150,#109,.T.);
#212=EDGE_CURVE('',#160,#157,#110,.T.);
#213=ORIENTED_EDGE('',*,*,#168,.F.);
#214=ORIENTED_EDGE('',*,*,#169,.F.);
#215=ORIENTED_EDGE('',*,*,#170,.F.);
#216=ORIENTED_EDGE('',*,*,#171,.F.);
#217=ORIENTED_EDGE('',*,*,#172,.F.);
#218=ORIENTED_EDGE('',*,*,#173,.F.);
#219=ORIENTED_EDGE('',*,*,#174,.F.);
#220=ORIENTED_EDGE('',*,*,#175,.F.);
#221=ORIENTED_EDGE('',*,*,#176,.F.);
#222=ORIENTED_EDGE('',*,*,#177,.F.);
#223=ORIENTED_EDGE('',*,*,#174,.T.);
#224=ORIENTED_EDGE('',*,*,#178,.F.);
#225=ORIENTED_EDGE('',*,*,#179,.T.);
#226=ORIENTED_EDGE('',*,*,#180,.F.);
#227=ORIENTED_EDGE('',*,*,#175,.T.);
#228=ORIENTED_EDGE('',*,*,#180,.T.);
#229=ORIENTED_EDGE('',*,*,#181,.T.);
#230=ORIENTED_EDGE('',*,*,#182,.T.);
#231=ORIENTED_EDGE('',*,*,#183,.T.);
#232=ORIENTED_EDGE('',*,*,#184,.T.);
#233=ORIENTED_EDGE('',*,*,#185,.T.);
#234=ORIENTED_EDGE('',*,*,#186,.T.);
#235=ORIENTED_EDGE('',*,*,#187,.T.);
#236=ORIENTED_EDGE('',*,*,#188,.T.);
#237=ORIENTED_EDGE('',*,*,#189,.T.);
#238=ORIENTED_EDGE('',*,*,#170,.T.);
#239=ORIENTED_EDGE('',*,*,#190,.T.);
#240=ORIENTED_EDGE('',*,*,#191,.F.);
#241=ORIENTED_EDGE('',*,*,#192,.T.);
#242=ORIENTED_EDGE('',*,*,#177,.T.);
#243=ORIENTED_EDGE('',*,*,#192,.F.);
#244=ORIENTED_EDGE('',*,*,#193,.F.);
#245=ORIENTED_EDGE('',*,*,#194,.T.);
#246=ORIENTED_EDGE('',*,*,#172,.T.);
#247=ORIENTED_EDGE('',*,*,#194,.F.);
#248=ORIENTED_EDGE('',*,*,#173,.T.);
#249=ORIENTED_EDGE('',*,*,#195,.T.);
#250=ORIENTED_EDGE('',*,*,#168,.T.);
#251=ORIENTED_EDGE('',*,*,#196,.T.);
#252=ORIENTED_EDGE('',*,*,#197,.T.);
#253=ORIENTED_EDGE('',*,*,#198,.T.);
#254=ORIENTED_EDGE('',*,*,#199,.T.);
#255=ORIENTED_EDGE('',*,*,#200,.T.);
#256=ORIENTED_EDGE('',*,*,#201,.T.);
#257=ORIENTED_EDGE('',*,*,#202,.T.);
#258=ORIENTED_EDGE('',*,*,#203,.T.);
#259=ORIENTED_EDGE('',*,*,#204,.T.);
#260=ORIENTED_EDGE('',*,*,#178,.T.);
#261=ORIENTED_EDGE('',*,*,#176,.T.);
#262=ORIENTED_EDGE('',*,*,#190,.F.);
#263=ORIENTED_EDGE('',*,*,#169,.T.);
#264=ORIENTED_EDGE('',*,*,#195,.F.);
#265=ORIENTED_EDGE('',*,*,#205,.F.);
#266=ORIENTED_EDGE('',*,*,#187,.F.);
#267=ORIENTED_EDGE('',*,*,#206,.F.);
#268=ORIENTED_EDGE('',*,*,#198,.F.);
#269=ORIENTED_EDGE('',*,*,#193,.T.);
#270=ORIENTED_EDGE('',*,*,#206,.T.);
#271=ORIENTED_EDGE('',*,*,#186,.F.);
#272=ORIENTED_EDGE('',*,*,#207,.F.);
#273=ORIENTED_EDGE('',*,*,#199,.F.);
#274=ORIENTED_EDGE('',*,*,#207,.T.);
#275=ORIENTED_EDGE('',*,*,#185,.F.);
#276=ORIENTED_EDGE('',*,*,#208,.F.);
#277=ORIENTED_EDGE('',*,*,#200,.F.);
#278=ORIENTED_EDGE('',*,*,#208,.T.);
#279=ORIENTED_EDGE('',*,*,#184,.F.);
#280=ORIENTED_EDGE('',*,*,#209,.F.);
#281=ORIENTED_EDGE('',*,*,#201,.F.);
#282=ORIENTED_EDGE('',*,*,#209,.T.);
#283=ORIENTED_EDGE('',*,*,#183,.F.);
#284=ORIENTED_EDGE('',*,*,#210,.F.);
#285=ORIENTED_EDGE('',*,*,#202,.F.);
#286=ORIENTED_EDGE('',*,*,#210,.T.);
#287=ORIENTED_EDGE('',*,*,#182,.F.);
#288=ORIENTED_EDGE('',*,*,#211,.F.);
#289=ORIENTED_EDGE('',*,*,#203,.F.);
#290=ORIENTED_EDGE('',*,*,#191,.T.);
#291=ORIENTED_EDGE('',*,*,#211,.T.);
#292=ORIENTED_EDGE('',*,*,#181,.F.);
#293=ORIENTED_EDGE('',*,*,#179,.F.);
#294=ORIENTED_EDGE('',*,*,#204,.F.);
#295=ORIENTED_EDGE('',*,*,#171,.T.);
#296=ORIENTED_EDGE('',*,*,#189,.F.);
#297=ORIENTED_EDGE('',*,*,#212,.F.);
#298=ORIENTED_EDGE('',*,*,#196,.F.);
#299=ORIENTED_EDGE('',*,*,#212,.T.);
#300=ORIENTED_EDGE('',*,*,#188,.F.);
#301=ORIENTED_EDGE('',*,*,#205,.T.);
#302=ORIENTED_EDGE('',*,*,#197,.F.);
#303=PLANE('',#342);
#304=PLANE('',#344);
#305=PLANE('',#346);
#306=PLANE('',#347);
#307=PLANE('',#359);
#308=PLANE('',#368);
#309=PLANE('',#373);
#310=PLANE('',#375);
#311=ADVANCED_FACE('',(#46,#24),#303,.F.);
#312=ADVANCED_FACE('',(#47,#25),#304,.F.);
#313=ADVANCED_FACE('',(#48),#305,.T.);
#314=ADVANCED_FACE('',(#49),#306,.T.);
#315=ADVANCED_FACE('',(#50),#15,.F.);
#316=ADVANCED_FACE('',(#51),#16,.F.);
#317=ADVANCED_FACE('',(#52),#307,.F.);
#318=ADVANCED_FACE('',(#53),#17,.F.);
#319=ADVANCED_FACE('',(#54,#26),#308,.T.);
#320=ADVANCED_FACE('',(#55),#18,.F.);
#321=ADVANCED_FACE('',(#56),#19,.T.);
#322=ADVANCED_FACE('',(#57),#20,.T.);
#323=ADVANCED_FACE('',(#58),#21,.F.);
#324=ADVANCED_FACE('',(#59,#27),#309,.T.);
#325=ADVANCED_FACE('',(#60),#22,.T.);
#326=ADVANCED_FACE('',(#61),#310,.T.);
#327=ADVANCED_FACE('',(#62),#23,.T.);
#328=CLOSED_SHELL('',(#311,#312,#313,#314,#315,#316,#317,#318,#319,#320,
#321,#322,#323,#324,#325,#326,#327));
#329=DERIVED_UNIT_ELEMENT(#331,1.);
#330=DERIVED_UNIT_ELEMENT(#574,-3.);
#331=(
MASS_UNIT()
NAMED_UNIT(*)
SI_UNIT(.KILO.,.GRAM.)
);
#332=DERIVED_UNIT((#329,#330));
#333=MEASURE_REPRESENTATION_ITEM('density measure',
POSITIVE_RATIO_MEASURE(7850.),#332);
#334=PROPERTY_DEFINITION_REPRESENTATION(#339,#336);
#335=PROPERTY_DEFINITION_REPRESENTATION(#340,#337);
#336=REPRESENTATION('material name',(#338),#571);
#337=REPRESENTATION('density',(#333),#571);
#338=DESCRIPTIVE_REPRESENTATION_ITEM('Acier','Acier');
#339=PROPERTY_DEFINITION('material property','material name',#581);
#340=PROPERTY_DEFINITION('material property','density of part',#581);
#341=AXIS2_PLACEMENT_3D('',#476,#377,#378);
#342=AXIS2_PLACEMENT_3D('',#477,#379,#380);
#343=AXIS2_PLACEMENT_3D('',#487,#385,#386);
#344=AXIS2_PLACEMENT_3D('',#488,#387,#388);
#345=AXIS2_PLACEMENT_3D('',#498,#393,#394);
#346=AXIS2_PLACEMENT_3D('',#499,#395,#396);
#347=AXIS2_PLACEMENT_3D('',#505,#400,#401);
#348=AXIS2_PLACEMENT_3D('',#507,#402,#403);
#349=AXIS2_PLACEMENT_3D('',#511,#405,#406);
#350=AXIS2_PLACEMENT_3D('',#513,#407,#408);
#351=AXIS2_PLACEMENT_3D('',#515,#409,#410);
#352=AXIS2_PLACEMENT_3D('',#517,#411,#412);
#353=AXIS2_PLACEMENT_3D('',#521,#414,#415);
#354=AXIS2_PLACEMENT_3D('',#523,#417,#418);
#355=AXIS2_PLACEMENT_3D('',#524,#419,#420);
#356=AXIS2_PLACEMENT_3D('',#526,#421,#422);
#357=AXIS2_PLACEMENT_3D('',#528,#424,#425);
#358=AXIS2_PLACEMENT_3D('',#530,#426,#427);
#359=AXIS2_PLACEMENT_3D('',#532,#429,#430);
#360=AXIS2_PLACEMENT_3D('',#533,#431,#432);
#361=AXIS2_PLACEMENT_3D('',#537,#434,#435);
#362=AXIS2_PLACEMENT_3D('',#541,#437,#438);
#363=AXIS2_PLACEMENT_3D('',#543,#439,#440);
#364=AXIS2_PLACEMENT_3D('',#545,#441,#442);
#365=AXIS2_PLACEMENT_3D('',#547,#443,#444);
#366=AXIS2_PLACEMENT_3D('',#550,#446,#447);
#367=AXIS2_PLACEMENT_3D('',#551,#448,#449);
#368=AXIS2_PLACEMENT_3D('',#552,#450,#451);
#369=AXIS2_PLACEMENT_3D('',#555,#454,#455);
#370=AXIS2_PLACEMENT_3D('',#557,#457,#458);
#371=AXIS2_PLACEMENT_3D('',#559,#460,#461);
#372=AXIS2_PLACEMENT_3D('',#561,#463,#464);
#373=AXIS2_PLACEMENT_3D('',#563,#466,#467);
#374=AXIS2_PLACEMENT_3D('',#565,#469,#470);
#375=AXIS2_PLACEMENT_3D('',#566,#471,#472);
#376=AXIS2_PLACEMENT_3D('',#568,#474,#475);
#377=DIRECTION('axis',(0.,0.,1.));
#378=DIRECTION('refdir',(1.,0.,0.));
#379=DIRECTION('center_axis',(0.,0.,1.));
#380=DIRECTION('ref_axis',(0.,-1.,0.));
#381=DIRECTION('',(0.,-1.,0.));
#382=DIRECTION('',(-1.,0.,0.));
#383=DIRECTION('',(0.,1.,0.));
#384=DIRECTION('',(1.,0.,0.));
#385=DIRECTION('center_axis',(0.,0.,-1.));
#386=DIRECTION('ref_axis',(-1.,0.,0.));
#387=DIRECTION('center_axis',(0.,0.,1.));
#388=DIRECTION('ref_axis',(0.,-1.,0.));
#389=DIRECTION('',(0.,-1.,0.));
#390=DIRECTION('',(-1.,0.,0.));
#391=DIRECTION('',(0.,1.,0.));
#392=DIRECTION('',(1.,0.,0.));
#393=DIRECTION('center_axis',(0.,0.,-1.));
#394=DIRECTION('ref_axis',(-1.,0.,0.));
#395=DIRECTION('center_axis',(0.,1.,0.));
#396=DIRECTION('ref_axis',(0.,0.,1.));
#397=DIRECTION('',(0.,0.,-1.));
#398=DIRECTION('',(1.,0.,0.));
#399=DIRECTION('',(0.,0.,1.));
#400=DIRECTION('center_axis',(1.,0.,0.));
#401=DIRECTION('ref_axis',(0.,1.,0.));
#402=DIRECTION('center_axis',(1.,0.,0.));
#403=DIRECTION('ref_axis',(0.,1.,5.9211894646675E-15));
#404=DIRECTION('',(0.,-1.,0.));
#405=DIRECTION('center_axis',(-1.,0.,0.));
#406=DIRECTION('ref_axis',(0.,-0.847946284118252,-0.53008216273522));
#407=DIRECTION('center_axis',(1.,0.,0.));
#408=DIRECTION('ref_axis',(0.,0.849905979551998,0.526934365857608));
#409=DIRECTION('center_axis',(1.,0.,0.));
#410=DIRECTION('ref_axis',(0.,-0.0495814167638938,0.998770085210648));
#411=DIRECTION('center_axis',(-1.,0.,0.));
#412=DIRECTION('ref_axis',(0.,-5.32907051820079E-15,-1.));
#413=DIRECTION('',(0.,-1.,0.));
#414=DIRECTION('center_axis',(1.,0.,0.));
#415=DIRECTION('ref_axis',(0.,0.,1.));
#416=DIRECTION('',(0.,0.,-1.));
#417=DIRECTION('center_axis',(-1.,0.,0.));
#418=DIRECTION('ref_axis',(0.,1.,0.));
#419=DIRECTION('center_axis',(0.,0.,-1.));
#420=DIRECTION('ref_axis',(-1.,0.,0.));
#421=DIRECTION('center_axis',(0.,0.,-1.));
#422=DIRECTION('ref_axis',(-1.,0.,0.));
#423=DIRECTION('',(0.,0.,-1.));
#424=DIRECTION('center_axis',(0.,0.,-1.));
#425=DIRECTION('ref_axis',(-1.,0.,0.));
#426=DIRECTION('center_axis',(0.,0.,-1.));
#427=DIRECTION('ref_axis',(-1.,0.,0.));
#428=DIRECTION('',(0.,0.,-1.));
#429=DIRECTION('center_axis',(1.,0.,0.));
#430=DIRECTION('ref_axis',(0.,1.,0.));
#431=DIRECTION('center_axis',(1.,0.,0.));
#432=DIRECTION('ref_axis',(0.,1.,0.));
#433=DIRECTION('',(0.,0.,1.));
#434=DIRECTION('center_axis',(-1.,0.,0.));
#435=DIRECTION('ref_axis',(0.,0.,1.));
#436=DIRECTION('',(0.,1.,0.));
#437=DIRECTION('center_axis',(1.,0.,0.));
#438=DIRECTION('ref_axis',(0.,-5.32907051820079E-15,-1.));
#439=DIRECTION('center_axis',(-1.,0.,0.));
#440=DIRECTION('ref_axis',(0.,-0.0495814167638938,0.998770085210648));
#441=DIRECTION('center_axis',(-1.,0.,0.));
#442=DIRECTION('ref_axis',(0.,0.849905979551998,0.526934365857608));
#443=DIRECTION('center_axis',(1.,0.,0.));
#444=DIRECTION('ref_axis',(0.,-0.847946284118252,-0.53008216273522));
#445=DIRECTION('',(0.,1.,0.));
#446=DIRECTION('center_axis',(-1.,0.,0.));
#447=DIRECTION('ref_axis',(0.,1.,5.9211894646675E-15));
#448=DIRECTION('center_axis',(1.,0.,0.));
#449=DIRECTION('ref_axis',(0.,1.,0.));
#450=DIRECTION('center_axis',(0.,0.,1.));
#451=DIRECTION('ref_axis',(0.,-1.,0.));
#452=DIRECTION('',(-1.,0.,0.));
#453=DIRECTION('',(1.,0.,0.));
#454=DIRECTION('center_axis',(1.,0.,0.));
#455=DIRECTION('ref_axis',(0.,-5.32907051820079E-15,-1.));
#456=DIRECTION('',(1.,0.,0.));
#457=DIRECTION('center_axis',(1.,0.,0.));
#458=DIRECTION('ref_axis',(0.,-0.0495814167638938,0.998770085210648));
#459=DIRECTION('',(1.,0.,0.));
#460=DIRECTION('center_axis',(1.,0.,0.));
#461=DIRECTION('ref_axis',(0.,0.849905979551998,0.526934365857608));
#462=DIRECTION('',(1.,0.,0.));
#463=DIRECTION('center_axis',(1.,0.,0.));
#464=DIRECTION('ref_axis',(0.,-0.847946284118252,-0.53008216273522));
#465=DIRECTION('',(1.,0.,0.));
#466=DIRECTION('center_axis',(0.,0.,1.));
#467=DIRECTION('ref_axis',(0.,-1.,0.));
#468=DIRECTION('',(1.,0.,0.));
#469=DIRECTION('center_axis',(1.,0.,0.));
#470=DIRECTION('ref_axis',(0.,1.,5.9211894646675E-15));
#471=DIRECTION('center_axis',(0.,-1.,0.));
#472=DIRECTION('ref_axis',(0.,0.,-1.));
#473=DIRECTION('',(1.,0.,0.));
#474=DIRECTION('center_axis',(1.,0.,0.));
#475=DIRECTION('ref_axis',(0.,0.,1.));
#476=CARTESIAN_POINT('',(0.,0.,0.));
#477=CARTESIAN_POINT('Origin',(42.6402246344967,104.142966855402,83.1824670158933));
#478=CARTESIAN_POINT('',(37.6402246344967,16.1623096535842,83.1824670158933));
#479=CARTESIAN_POINT('',(37.6402246344967,-8.34311469788148,83.1824670158933));
#480=CARTESIAN_POINT('',(37.6402246344967,63.5276382544931,83.1824670158933));
#481=CARTESIAN_POINT('',(47.6402246344967,16.1623096535842,83.1824670158933));
#482=CARTESIAN_POINT('',(42.6402246344967,16.1623096535842,83.1824670158933));
#483=CARTESIAN_POINT('',(47.6402246344967,-8.34311469788148,83.1824670158933));
#484=CARTESIAN_POINT('',(47.6402246344967,63.5276382544931,83.1824670158933));
#485=CARTESIAN_POINT('',(42.6402246344967,-8.34311469788148,83.1824670158933));
#486=CARTESIAN_POINT('',(44.1402246344968,1.13903384244961,83.1824670158933));
#487=CARTESIAN_POINT('Origin',(42.6402246344967,1.13903384244961,83.1824670158933));
#488=CARTESIAN_POINT('Origin',(42.6402246344967,104.142966855402,83.1824670158933));
#489=CARTESIAN_POINT('',(37.6402246344967,54.1677340050498,83.1824670158933));
#490=CARTESIAN_POINT('',(37.6402246344967,29.6623096535842,83.1824670158933));
#491=CARTESIAN_POINT('',(37.6402246344967,63.5276382544931,83.1824670158933));
#492=CARTESIAN_POINT('',(47.6402246344967,54.1677340050498,83.1824670158933));
#493=CARTESIAN_POINT('',(42.6402246344967,54.1677340050498,83.1824670158933));
#494=CARTESIAN_POINT('',(47.6402246344967,29.6623096535842,83.1824670158933));
#495=CARTESIAN_POINT('',(47.6402246344967,63.5276382544931,83.1824670158933));
#496=CARTESIAN_POINT('',(42.6402246344967,29.6623096535842,83.1824670158933));
#497=CARTESIAN_POINT('',(44.1402246344967,44.6855854647187,83.1824670158933));
#498=CARTESIAN_POINT('Origin',(42.6402246344967,44.6855854647187,83.1824670158933));
#499=CARTESIAN_POINT('Origin',(42.6402246344967,54.1677340050498,81.1824670158934));
#500=CARTESIAN_POINT('',(37.6402246344967,54.1677340050498,85.1824670158934));
#501=CARTESIAN_POINT('',(37.6402246344967,54.1677340050498,85.1824670158934));
#502=CARTESIAN_POINT('',(47.6402246344967,54.1677340050498,85.1824670158934));
#503=CARTESIAN_POINT('',(42.6402246344967,54.1677340050498,85.1824670158934));
#504=CARTESIAN_POINT('',(47.6402246344967,54.1677340050498,85.1824670158934));
#505=CARTESIAN_POINT('Origin',(47.6402246344967,22.9123096535842,15.3245766798103));
#506=CARTESIAN_POINT('',(47.6402246344967,51.1677340050498,88.1824670158933));
#507=CARTESIAN_POINT('Origin',(47.6402246344967,51.1677340050498,85.1824670158933));
#508=CARTESIAN_POINT('',(47.6402246344967,38.2034369243877,88.1824670158933));
#509=CARTESIAN_POINT('',(47.6402246344967,51.1677340050498,88.1824670158933));
#510=CARTESIAN_POINT('',(47.6402246344967,33.9637055037964,90.5320562022172));
#511=CARTESIAN_POINT('Origin',(47.6402246344967,38.2034369243876,93.1824670158933));
#512=CARTESIAN_POINT('',(47.6402246344967,22.9123096535842,97.0474670158932));
#513=CARTESIAN_POINT('Origin',(47.6402246344967,22.2276575899723,83.2558078713075));
#514=CARTESIAN_POINT('',(47.6402246344967,11.8609138033718,90.5320562022173));
#515=CARTESIAN_POINT('Origin',(47.6402246344967,23.596961717196,83.2558078713075));
#516=CARTESIAN_POINT('',(47.6402246344967,7.62118238278068,88.1824670158933));
#517=CARTESIAN_POINT('Origin',(47.6402246344967,7.62118238278071,93.1824670158933));
#518=CARTESIAN_POINT('',(47.6402246344967,-5.34311469788147,88.1824670158933));
#519=CARTESIAN_POINT('',(47.6402246344967,-5.34311469788147,88.1824670158933));
#520=CARTESIAN_POINT('',(47.6402246344967,-8.34311469788148,85.1824670158934));
#521=CARTESIAN_POINT('Origin',(47.6402246344967,-5.34311469788147,85.1824670158933));
#522=CARTESIAN_POINT('',(47.6402246344967,-8.34311469788148,85.1824670158934));
#523=CARTESIAN_POINT('Origin',(47.6402246344967,22.9123096535842,83.1824670158933));
#524=CARTESIAN_POINT('Origin',(42.6402246344967,44.6855854647187,143.182467015893));
#525=CARTESIAN_POINT('',(44.1402246344967,44.6855854647187,88.1824670158933));
#526=CARTESIAN_POINT('Origin',(42.6402246344967,44.6855854647187,88.1824670158933));
#527=CARTESIAN_POINT('',(44.1402246344967,44.6855854647187,143.182467015893));
#528=CARTESIAN_POINT('Origin',(42.6402246344967,1.13903384244961,143.182467015893));
#529=CARTESIAN_POINT('',(44.1402246344968,1.13903384244961,88.1824670158933));
#530=CARTESIAN_POINT('Origin',(42.6402246344967,1.13903384244961,88.1824670158933));
#531=CARTESIAN_POINT('',(44.1402246344967,1.13903384244961,143.182467015893));
#532=CARTESIAN_POINT('Origin',(37.6402246344967,22.9123096535842,15.3245766798103));
#533=CARTESIAN_POINT('Origin',(37.6402246344967,22.9123096535842,83.1824670158933));
#534=CARTESIAN_POINT('',(37.6402246344967,-8.34311469788148,85.1824670158934));
#535=CARTESIAN_POINT('',(37.6402246344967,-8.34311469788148,85.1824670158934));
#536=CARTESIAN_POINT('',(37.6402246344967,-5.34311469788147,88.1824670158933));
#537=CARTESIAN_POINT('Origin',(37.6402246344967,-5.34311469788147,85.1824670158933));
#538=CARTESIAN_POINT('',(37.6402246344967,7.62118238278068,88.1824670158933));
#539=CARTESIAN_POINT('',(37.6402246344967,-5.34311469788147,88.1824670158933));
#540=CARTESIAN_POINT('',(37.6402246344967,11.8609138033718,90.5320562022173));
#541=CARTESIAN_POINT('Origin',(37.6402246344967,7.62118238278071,93.1824670158933));
#542=CARTESIAN_POINT('',(37.6402246344967,22.9123096535842,97.0474670158932));
#543=CARTESIAN_POINT('Origin',(37.6402246344967,23.596961717196,83.2558078713075));
#544=CARTESIAN_POINT('',(37.6402246344967,33.9637055037964,90.5320562022172));
#545=CARTESIAN_POINT('Origin',(37.6402246344967,22.2276575899723,83.2558078713075));
#546=CARTESIAN_POINT('',(37.6402246344967,38.2034369243877,88.1824670158933));
#547=CARTESIAN_POINT('Origin',(37.6402246344967,38.2034369243876,93.1824670158933));
#548=CARTESIAN_POINT('',(37.6402246344967,51.1677340050498,88.1824670158933));
#549=CARTESIAN_POINT('',(37.6402246344967,51.1677340050498,88.1824670158933));
#550=CARTESIAN_POINT('Origin',(37.6402246344967,51.1677340050498,85.1824670158933));
#551=CARTESIAN_POINT('Origin',(42.6402246344967,22.9123096535842,83.1824670158933));
#552=CARTESIAN_POINT('Origin',(42.6402246344967,7.62118238278068,88.1824670158933));
#553=CARTESIAN_POINT('',(42.6402246344967,-5.34311469788147,88.1824670158933));
#554=CARTESIAN_POINT('',(42.6402246344967,7.62118238278068,88.1824670158933));
#555=CARTESIAN_POINT('Origin',(42.6402246344967,7.62118238278071,93.1824670158933));
#556=CARTESIAN_POINT('',(42.6402246344967,11.8609138033718,90.5320562022173));
#557=CARTESIAN_POINT('Origin',(42.6402246344967,23.596961717196,83.2558078713075));
#558=CARTESIAN_POINT('',(42.6402246344967,22.9123096535842,97.0474670158932));
#559=CARTESIAN_POINT('Origin',(42.6402246344967,22.2276575899723,83.2558078713075));
#560=CARTESIAN_POINT('',(42.6402246344967,33.9637055037964,90.5320562022172));
#561=CARTESIAN_POINT('Origin',(42.6402246344967,38.2034369243876,93.1824670158933));
#562=CARTESIAN_POINT('',(42.6402246344967,38.2034369243877,88.1824670158933));
#563=CARTESIAN_POINT('Origin',(42.6402246344967,51.1677340050498,88.1824670158933));
#564=CARTESIAN_POINT('',(42.6402246344967,51.1677340050498,88.1824670158933));
#565=CARTESIAN_POINT('Origin',(42.6402246344967,51.1677340050498,85.1824670158933));
#566=CARTESIAN_POINT('Origin',(42.6402246344967,-8.34311469788148,85.1824670158934));
#567=CARTESIAN_POINT('',(42.6402246344967,-8.34311469788148,85.1824670158934));
#568=CARTESIAN_POINT('Origin',(42.6402246344967,-5.34311469788147,85.1824670158933));
#569=UNCERTAINTY_MEASURE_WITH_UNIT(LENGTH_MEASURE(0.01),#573,
'DISTANCE_ACCURACY_VALUE',
'Maximum model space distance between geometric entities at asserted c
onnectivities');
#570=UNCERTAINTY_MEASURE_WITH_UNIT(LENGTH_MEASURE(0.01),#573,
'DISTANCE_ACCURACY_VALUE',
'Maximum model space distance between geometric entities at asserted c
onnectivities');
#571=(
GEOMETRIC_REPRESENTATION_CONTEXT(3)
GLOBAL_UNCERTAINTY_ASSIGNED_CONTEXT((#569))
GLOBAL_UNIT_ASSIGNED_CONTEXT((#573,#575,#576))
REPRESENTATION_CONTEXT('','3D')
);
#572=(
GEOMETRIC_REPRESENTATION_CONTEXT(3)
GLOBAL_UNCERTAINTY_ASSIGNED_CONTEXT((#570))
GLOBAL_UNIT_ASSIGNED_CONTEXT((#573,#575,#576))
REPRESENTATION_CONTEXT('','3D')
);
#573=(
LENGTH_UNIT()
NAMED_UNIT(*)
SI_UNIT(.MILLI.,.METRE.)
);
#574=(
LENGTH_UNIT()
NAMED_UNIT(*)
SI_UNIT($,.METRE.)
);
#575=(
NAMED_UNIT(*)
PLANE_ANGLE_UNIT()
SI_UNIT($,.RADIAN.)
);
#576=(
NAMED_UNIT(*)
SI_UNIT($,.STERADIAN.)
SOLID_ANGLE_UNIT()
);
#577=SHAPE_DEFINITION_REPRESENTATION(#578,#579);
#578=PRODUCT_DEFINITION_SHAPE('',$,#581);
#579=SHAPE_REPRESENTATION('',(#341),#571);
#580=PRODUCT_DEFINITION_CONTEXT('part definition',#585,'design');
#581=PRODUCT_DEFINITION('(Non enregistr\X\E9)','(Non enregistr\X\E9)',#582,
#580);
#582=PRODUCT_DEFINITION_FORMATION('',$,#587);
#583=PRODUCT_RELATED_PRODUCT_CATEGORY('(Non enregistr\X\E9)',
'(Non enregistr\X\E9)',(#587));
#584=APPLICATION_PROTOCOL_DEFINITION('international standard',
'automotive_design',2009,#585);
#585=APPLICATION_CONTEXT(
'Core Data for Automotive Mechanical Design Process');
#586=PRODUCT_CONTEXT('part definition',#585,'mechanical');
#587=PRODUCT('(Non enregistr\X\E9)','(Non enregistr\X\E9)',$,(#586));
#588=PRESENTATION_STYLE_ASSIGNMENT((#590));
#589=PRESENTATION_STYLE_ASSIGNMENT((#591));
#590=SURFACE_STYLE_USAGE(.BOTH.,#592);
#591=SURFACE_STYLE_USAGE(.BOTH.,#593);
#592=SURFACE_SIDE_STYLE('',(#594));
#593=SURFACE_SIDE_STYLE('',(#595));
#594=SURFACE_STYLE_FILL_AREA(#596);
#595=SURFACE_STYLE_FILL_AREA(#597);
#596=FILL_AREA_STYLE('Acier - Satin\X\E9',(#598));
#597=FILL_AREA_STYLE('Opaque(160,160,160)',(#599));
#598=FILL_AREA_STYLE_COLOUR('Acier - Satin\X\E9',#600);
#599=FILL_AREA_STYLE_COLOUR('Opaque(160,160,160)',#601);
#600=COLOUR_RGB('Acier - Satin\X\E9',0.627450980392157,0.627450980392157,
0.627450980392157);
#601=COLOUR_RGB('Opaque(160,160,160)',0.627450980392157,0.627450980392157,
0.627450980392157);
ENDSEC;
END-ISO-10303-21;
