ISO-10303-21;
HEADER;
/* Generated by software containing ST-Developer
 * from STEP Tools, Inc. (www.steptools.com) 
 */

FILE_DESCRIPTION(
/* description */ (''),
/* implementation_level */ '2;1');

FILE_NAME(
/* name */ 'alsoirs o brien v2.step',
/* time_stamp */ '2023-11-10T22:42:55+01:00',
/* author */ (''),
/* organization */ (''),
/* preprocessor_version */ 'ST-DEVELOPER v20',
/* originating_system */ 'Autodesk Translation Framework v12.14.0.127',

/* authorisation */ '');

FILE_SCHEMA (('AUTOMOTIVE_DESIGN { 1 0 10303 214 3 1 1 }'));
ENDSEC;

DATA;
#10=MECHANICAL_DESIGN_GEOMETRIC_PRESENTATION_REPRESENTATION('',(#15,#16,
#17,#18),#380);
#11=SHAPE_REPRESENTATION_RELATIONSHIP('SRR','None',#387,#12);
#12=ADVANCED_BREP_SHAPE_REPRESENTATION('',(#19,#20,#21,#22),#379);
#13=CYLINDRICAL_SURFACE('',#244,6.);
#14=CYLINDRICAL_SURFACE('',#249,5.);
#15=STYLED_ITEM('',(#396),#19);
#16=STYLED_ITEM('',(#396),#20);
#17=STYLED_ITEM('',(#396),#21);
#18=STYLED_ITEM('',(#396),#22);
#19=MANIFOLD_SOLID_BREP('Corps1',#213);
#20=MANIFOLD_SOLID_BREP('Corps2',#214);
#21=MANIFOLD_SOLID_BREP('Corps3',#215);
#22=MANIFOLD_SOLID_BREP('Corps4',#216);
#23=CONICAL_SURFACE('',#235,5.85,0.0121422603783533);
#24=CONICAL_SURFACE('',#237,3.75,0.011467387224302);
#25=FACE_OUTER_BOUND('',#41,.T.);
#26=FACE_OUTER_BOUND('',#42,.T.);
#27=FACE_OUTER_BOUND('',#43,.T.);
#28=FACE_OUTER_BOUND('',#44,.T.);
#29=FACE_OUTER_BOUND('',#45,.T.);
#30=FACE_OUTER_BOUND('',#46,.T.);
#31=FACE_OUTER_BOUND('',#47,.T.);
#32=FACE_OUTER_BOUND('',#48,.T.);
#33=FACE_OUTER_BOUND('',#49,.T.);
#34=FACE_OUTER_BOUND('',#50,.T.);
#35=FACE_OUTER_BOUND('',#51,.T.);
#36=FACE_OUTER_BOUND('',#52,.T.);
#37=FACE_OUTER_BOUND('',#53,.T.);
#38=FACE_OUTER_BOUND('',#54,.T.);
#39=FACE_OUTER_BOUND('',#55,.T.);
#40=FACE_OUTER_BOUND('',#56,.T.);
#41=EDGE_LOOP('',(#137,#138,#139));
#42=EDGE_LOOP('',(#140,#141,#142,#143));
#43=EDGE_LOOP('',(#144,#145,#146));
#44=EDGE_LOOP('',(#147,#148,#149,#150));
#45=EDGE_LOOP('',(#151,#152,#153,#154));
#46=EDGE_LOOP('',(#155,#156,#157,#158));
#47=EDGE_LOOP('',(#159,#160,#161));
#48=EDGE_LOOP('',(#162,#163,#164));
#49=EDGE_LOOP('',(#165,#166,#167,#168));
#50=EDGE_LOOP('',(#169,#170,#171,#172));
#51=EDGE_LOOP('',(#173,#174,#175,#176));
#52=EDGE_LOOP('',(#177));
#53=EDGE_LOOP('',(#178));
#54=EDGE_LOOP('',(#179,#180,#181,#182));
#55=EDGE_LOOP('',(#183));
#56=EDGE_LOOP('',(#184));
#57=LINE('',#326,#73);
#58=LINE('',#327,#74);
#59=LINE('',#330,#75);
#60=LINE('',#332,#76);
#61=LINE('',#333,#77);
#62=LINE('',#336,#78);
#63=LINE('',#339,#79);
#64=LINE('',#344,#80);
#65=LINE('',#348,#81);
#66=LINE('',#352,#82);
#67=LINE('',#353,#83);
#68=LINE('',#356,#84);
#69=LINE('',#357,#85);
#70=LINE('',#359,#86);
#71=LINE('',#365,#87);
#72=LINE('',#373,#88);
#73=VECTOR('',#260,10.);
#74=VECTOR('',#261,10.);
#75=VECTOR('',#264,10.);
#76=VECTOR('',#265,10.);
#77=VECTOR('',#266,10.);
#78=VECTOR('',#269,10.);
#79=VECTOR('',#274,10.);
#80=VECTOR('',#279,10.);
#81=VECTOR('',#282,10.);
#82=VECTOR('',#287,10.);
#83=VECTOR('',#288,10.);
#84=VECTOR('',#291,10.);
#85=VECTOR('',#292,10.);
#86=VECTOR('',#295,10.);
#87=VECTOR('',#302,6.);
#88=VECTOR('',#313,5.);
#89=CIRCLE('',#231,6.57857142857143);
#90=CIRCLE('',#234,5.);
#91=CIRCLE('',#238,2.5);
#92=CIRCLE('',#239,5.);
#93=CIRCLE('',#245,6.);
#94=CIRCLE('',#246,6.);
#95=CIRCLE('',#250,5.);
#96=CIRCLE('',#251,5.);
#97=VERTEX_POINT('',#322);
#98=VERTEX_POINT('',#323);
#99=VERTEX_POINT('',#325);
#100=VERTEX_POINT('',#329);
#101=VERTEX_POINT('',#331);
#102=VERTEX_POINT('',#335);
#103=VERTEX_POINT('',#342);
#104=VERTEX_POINT('',#343);
#105=VERTEX_POINT('',#345);
#106=VERTEX_POINT('',#347);
#107=VERTEX_POINT('',#351);
#108=VERTEX_POINT('',#355);
#109=VERTEX_POINT('',#362);
#110=VERTEX_POINT('',#364);
#111=VERTEX_POINT('',#370);
#112=VERTEX_POINT('',#372);
#113=EDGE_CURVE('',#97,#98,#89,.T.);
#114=EDGE_CURVE('',#99,#97,#57,.T.);
#115=EDGE_CURVE('',#98,#99,#58,.T.);
#116=EDGE_CURVE('',#97,#100,#59,.T.);
#117=EDGE_CURVE('',#100,#101,#60,.T.);
#118=EDGE_CURVE('',#101,#99,#61,.T.);
#119=EDGE_CURVE('',#101,#102,#62,.T.);
#120=EDGE_CURVE('',#102,#100,#90,.T.);
#121=EDGE_CURVE('',#102,#98,#63,.T.);
#122=EDGE_CURVE('',#103,#104,#64,.T.);
#123=EDGE_CURVE('',#103,#105,#91,.T.);
#124=EDGE_CURVE('',#106,#105,#65,.T.);
#125=EDGE_CURVE('',#104,#106,#92,.T.);
#126=EDGE_CURVE('',#107,#104,#66,.T.);
#127=EDGE_CURVE('',#107,#106,#67,.T.);
#128=EDGE_CURVE('',#108,#103,#68,.T.);
#129=EDGE_CURVE('',#105,#108,#69,.T.);
#130=EDGE_CURVE('',#108,#107,#70,.T.);
#131=EDGE_CURVE('',#109,#109,#93,.T.);
#132=EDGE_CURVE('',#109,#110,#71,.T.);
#133=EDGE_CURVE('',#110,#110,#94,.T.);
#134=EDGE_CURVE('',#111,#111,#95,.T.);
#135=EDGE_CURVE('',#111,#112,#72,.T.);
#136=EDGE_CURVE('',#112,#112,#96,.T.);
#137=ORIENTED_EDGE('',*,*,#113,.F.);
#138=ORIENTED_EDGE('',*,*,#114,.F.);
#139=ORIENTED_EDGE('',*,*,#115,.F.);
#140=ORIENTED_EDGE('',*,*,#114,.T.);
#141=ORIENTED_EDGE('',*,*,#116,.T.);
#142=ORIENTED_EDGE('',*,*,#117,.T.);
#143=ORIENTED_EDGE('',*,*,#118,.T.);
#144=ORIENTED_EDGE('',*,*,#119,.F.);
#145=ORIENTED_EDGE('',*,*,#117,.F.);
#146=ORIENTED_EDGE('',*,*,#120,.F.);
#147=ORIENTED_EDGE('',*,*,#113,.T.);
#148=ORIENTED_EDGE('',*,*,#121,.F.);
#149=ORIENTED_EDGE('',*,*,#120,.T.);
#150=ORIENTED_EDGE('',*,*,#116,.F.);
#151=ORIENTED_EDGE('',*,*,#115,.T.);
#152=ORIENTED_EDGE('',*,*,#118,.F.);
#153=ORIENTED_EDGE('',*,*,#119,.T.);
#154=ORIENTED_EDGE('',*,*,#121,.T.);
#155=ORIENTED_EDGE('',*,*,#122,.F.);
#156=ORIENTED_EDGE('',*,*,#123,.T.);
#157=ORIENTED_EDGE('',*,*,#124,.F.);
#158=ORIENTED_EDGE('',*,*,#125,.F.);
#159=ORIENTED_EDGE('',*,*,#126,.T.);
#160=ORIENTED_EDGE('',*,*,#125,.T.);
#161=ORIENTED_EDGE('',*,*,#127,.F.);
#162=ORIENTED_EDGE('',*,*,#128,.F.);
#163=ORIENTED_EDGE('',*,*,#129,.F.);
#164=ORIENTED_EDGE('',*,*,#123,.F.);
#165=ORIENTED_EDGE('',*,*,#129,.T.);
#166=ORIENTED_EDGE('',*,*,#130,.T.);
#167=ORIENTED_EDGE('',*,*,#127,.T.);
#168=ORIENTED_EDGE('',*,*,#124,.T.);
#169=ORIENTED_EDGE('',*,*,#128,.T.);
#170=ORIENTED_EDGE('',*,*,#122,.T.);
#171=ORIENTED_EDGE('',*,*,#126,.F.);
#172=ORIENTED_EDGE('',*,*,#130,.F.);
#173=ORIENTED_EDGE('',*,*,#131,.F.);
#174=ORIENTED_EDGE('',*,*,#132,.T.);
#175=ORIENTED_EDGE('',*,*,#133,.T.);
#176=ORIENTED_EDGE('',*,*,#132,.F.);
#177=ORIENTED_EDGE('',*,*,#131,.T.);
#178=ORIENTED_EDGE('',*,*,#133,.F.);
#179=ORIENTED_EDGE('',*,*,#134,.F.);
#180=ORIENTED_EDGE('',*,*,#135,.T.);
#181=ORIENTED_EDGE('',*,*,#136,.T.);
#182=ORIENTED_EDGE('',*,*,#135,.F.);
#183=ORIENTED_EDGE('',*,*,#134,.T.);
#184=ORIENTED_EDGE('',*,*,#136,.F.);
#185=PLANE('',#230);
#186=PLANE('',#232);
#187=PLANE('',#233);
#188=PLANE('',#236);
#189=PLANE('',#240);
#190=PLANE('',#241);
#191=PLANE('',#242);
#192=PLANE('',#243);
#193=PLANE('',#247);
#194=PLANE('',#248);
#195=PLANE('',#252);
#196=PLANE('',#253);
#197=ADVANCED_FACE('',(#25),#185,.T.);
#198=ADVANCED_FACE('',(#26),#186,.T.);
#199=ADVANCED_FACE('',(#27),#187,.T.);
#200=ADVANCED_FACE('',(#28),#23,.T.);
#201=ADVANCED_FACE('',(#29),#188,.F.);
#202=ADVANCED_FACE('',(#30),#24,.T.);
#203=ADVANCED_FACE('',(#31),#189,.T.);
#204=ADVANCED_FACE('',(#32),#190,.T.);
#205=ADVANCED_FACE('',(#33),#191,.T.);
#206=ADVANCED_FACE('',(#34),#192,.F.);
#207=ADVANCED_FACE('',(#35),#13,.T.);
#208=ADVANCED_FACE('',(#36),#193,.T.);
#209=ADVANCED_FACE('',(#37),#194,.F.);
#210=ADVANCED_FACE('',(#38),#14,.T.);
#211=ADVANCED_FACE('',(#39),#195,.T.);
#212=ADVANCED_FACE('',(#40),#196,.F.);
#213=CLOSED_SHELL('',(#197,#198,#199,#200,#201));
#214=CLOSED_SHELL('',(#202,#203,#204,#205,#206));
#215=CLOSED_SHELL('',(#207,#208,#209));
#216=CLOSED_SHELL('',(#210,#211,#212));
#217=DERIVED_UNIT_ELEMENT(#219,1.);
#218=DERIVED_UNIT_ELEMENT(#382,-3.);
#219=(
MASS_UNIT()
NAMED_UNIT(*)
SI_UNIT(.KILO.,.GRAM.)
);
#220=DERIVED_UNIT((#217,#218));
#221=MEASURE_REPRESENTATION_ITEM('density measure',
POSITIVE_RATIO_MEASURE(7850.),#220);
#222=PROPERTY_DEFINITION_REPRESENTATION(#227,#224);
#223=PROPERTY_DEFINITION_REPRESENTATION(#228,#225);
#224=REPRESENTATION('material name',(#226),#379);
#225=REPRESENTATION('density',(#221),#379);
#226=DESCRIPTIVE_REPRESENTATION_ITEM('Acier','Acier');
#227=PROPERTY_DEFINITION('material property','material name',#389);
#228=PROPERTY_DEFINITION('material property','density of part',#389);
#229=AXIS2_PLACEMENT_3D('',#320,#254,#255);
#230=AXIS2_PLACEMENT_3D('',#321,#256,#257);
#231=AXIS2_PLACEMENT_3D('',#324,#258,#259);
#232=AXIS2_PLACEMENT_3D('',#328,#262,#263);
#233=AXIS2_PLACEMENT_3D('',#334,#267,#268);
#234=AXIS2_PLACEMENT_3D('',#337,#270,#271);
#235=AXIS2_PLACEMENT_3D('',#338,#272,#273);
#236=AXIS2_PLACEMENT_3D('',#340,#275,#276);
#237=AXIS2_PLACEMENT_3D('',#341,#277,#278);
#238=AXIS2_PLACEMENT_3D('',#346,#280,#281);
#239=AXIS2_PLACEMENT_3D('',#349,#283,#284);
#240=AXIS2_PLACEMENT_3D('',#350,#285,#286);
#241=AXIS2_PLACEMENT_3D('',#354,#289,#290);
#242=AXIS2_PLACEMENT_3D('',#358,#293,#294);
#243=AXIS2_PLACEMENT_3D('',#360,#296,#297);
#244=AXIS2_PLACEMENT_3D('',#361,#298,#299);
#245=AXIS2_PLACEMENT_3D('',#363,#300,#301);
#246=AXIS2_PLACEMENT_3D('',#366,#303,#304);
#247=AXIS2_PLACEMENT_3D('',#367,#305,#306);
#248=AXIS2_PLACEMENT_3D('',#368,#307,#308);
#249=AXIS2_PLACEMENT_3D('',#369,#309,#310);
#250=AXIS2_PLACEMENT_3D('',#371,#311,#312);
#251=AXIS2_PLACEMENT_3D('',#374,#314,#315);
#252=AXIS2_PLACEMENT_3D('',#375,#316,#317);
#253=AXIS2_PLACEMENT_3D('',#376,#318,#319);
#254=DIRECTION('axis',(0.,0.,1.));
#255=DIRECTION('refdir',(1.,0.,0.));
#256=DIRECTION('center_axis',(-1.,0.,-1.22464679914735E-16));
#257=DIRECTION('ref_axis',(-1.22464679914735E-16,0.,1.));
#258=DIRECTION('center_axis',(1.,0.,1.22464679914735E-16));
#259=DIRECTION('ref_axis',(0.,1.,0.));
#260=DIRECTION('',(-1.22464679914735E-16,-1.83697019872103E-16,1.));
#261=DIRECTION('',(0.,-1.,0.));
#262=DIRECTION('center_axis',(-2.24963967399279E-32,1.,1.83697019872103E-16));
#263=DIRECTION('ref_axis',(-1.,0.,-1.22464679914735E-16));
#264=DIRECTION('',(0.999926283662153,2.23044223772066E-18,-0.0121419620158975));
#265=DIRECTION('',(1.22464679914735E-16,1.83697019872103E-16,-1.));
#266=DIRECTION('',(-1.,0.,-1.22464679914735E-16));
#267=DIRECTION('center_axis',(1.,0.,1.22464679914735E-16));
#268=DIRECTION('ref_axis',(1.22464679914735E-16,0.,-1.));
#269=DIRECTION('',(0.,1.,0.));
#270=DIRECTION('center_axis',(-1.,0.,-1.22464679914735E-16));
#271=DIRECTION('ref_axis',(0.,1.,0.));
#272=DIRECTION('center_axis',(-1.,0.,-1.22464679914735E-16));
#273=DIRECTION('ref_axis',(8.65956056235493E-17,-0.707106781186548,-0.707106781186548));
#274=DIRECTION('',(-0.999926283662153,0.0121419620158976,-1.22455652267016E-16));
#275=DIRECTION('center_axis',(1.22464679914735E-16,0.,-1.));
#276=DIRECTION('ref_axis',(-1.,0.,-1.22464679914735E-16));
#277=DIRECTION('center_axis',(-1.,0.,-1.22464679914735E-16));
#278=DIRECTION('ref_axis',(8.65956056235494E-17,-0.707106781186547,-0.707106781186548));
#279=DIRECTION('',(-0.999934250235642,0.0114671358971977,-1.22456627890889E-16));
#280=DIRECTION('center_axis',(-1.,0.,-1.22464679914735E-16));
#281=DIRECTION('ref_axis',(4.19896462600273E-32,1.,-3.42871481714256E-16));
#282=DIRECTION('',(0.999934250235642,2.10647869078364E-18,-0.0114671358971976));
#283=DIRECTION('center_axis',(-1.,0.,-1.22464679914735E-16));
#284=DIRECTION('ref_axis',(4.19896462600273E-32,1.,-3.42871481714256E-16));
#285=DIRECTION('center_axis',(-1.,0.,-1.22464679914735E-16));
#286=DIRECTION('ref_axis',(-1.22464679914735E-16,0.,1.));
#287=DIRECTION('',(0.,1.,0.));
#288=DIRECTION('',(-1.22464679914735E-16,-1.83697019872103E-16,1.));
#289=DIRECTION('center_axis',(1.,0.,1.22464679914735E-16));
#290=DIRECTION('ref_axis',(1.22464679914735E-16,0.,-1.));
#291=DIRECTION('',(0.,1.,0.));
#292=DIRECTION('',(1.22464679914735E-16,1.83697019872103E-16,-1.));
#293=DIRECTION('center_axis',(-2.24963967399279E-32,1.,1.83697019872103E-16));
#294=DIRECTION('ref_axis',(-1.,0.,-1.22464679914735E-16));
#295=DIRECTION('',(-1.,0.,-1.22464679914735E-16));
#296=DIRECTION('center_axis',(1.22464679914735E-16,0.,-1.));
#297=DIRECTION('ref_axis',(-1.,0.,-1.22464679914735E-16));
#298=DIRECTION('center_axis',(-1.,0.,-1.22464679914735E-16));
#299=DIRECTION('ref_axis',(-1.22464679914735E-16,0.,1.));
#300=DIRECTION('center_axis',(-1.,0.,-1.22464679914735E-16));
#301=DIRECTION('ref_axis',(-1.22464679914735E-16,0.,1.));
#302=DIRECTION('',(1.,0.,1.22464679914735E-16));
#303=DIRECTION('center_axis',(-1.,0.,-1.22464679914735E-16));
#304=DIRECTION('ref_axis',(-1.22464679914735E-16,0.,1.));
#305=DIRECTION('center_axis',(-1.,0.,-1.22464679914735E-16));
#306=DIRECTION('ref_axis',(-1.22464679914735E-16,0.,1.));
#307=DIRECTION('center_axis',(-1.,0.,-1.22464679914735E-16));
#308=DIRECTION('ref_axis',(-1.22464679914735E-16,0.,1.));
#309=DIRECTION('center_axis',(-1.,0.,-1.22464679914735E-16));
#310=DIRECTION('ref_axis',(-1.22464679914735E-16,0.,1.));
#311=DIRECTION('center_axis',(-1.,0.,-1.22464679914735E-16));
#312=DIRECTION('ref_axis',(-1.22464679914735E-16,0.,1.));
#313=DIRECTION('',(1.,0.,1.22464679914735E-16));
#314=DIRECTION('center_axis',(-1.,0.,-1.22464679914735E-16));
#315=DIRECTION('ref_axis',(-1.22464679914735E-16,0.,1.));
#316=DIRECTION('center_axis',(-1.,0.,-1.22464679914735E-16));
#317=DIRECTION('ref_axis',(-1.22464679914735E-16,0.,1.));
#318=DIRECTION('center_axis',(-1.,0.,-1.22464679914735E-16));
#319=DIRECTION('ref_axis',(-1.22464679914735E-16,0.,1.));
#320=CARTESIAN_POINT('',(0.,0.,0.));
#321=CARTESIAN_POINT('Origin',(20.,0.,-13.1571428571429));
#322=CARTESIAN_POINT('',(20.,-1.20846396644433E-15,-6.57857142857143));
#323=CARTESIAN_POINT('',(20.,6.57857142857143,-13.1571428571429));
#324=CARTESIAN_POINT('Origin',(20.,0.,-13.1571428571429));
#325=CARTESIAN_POINT('',(20.,0.,-13.1571428571429));
#326=CARTESIAN_POINT('',(20.,-3.07692508285773E-16,-11.4821428571429));
#327=CARTESIAN_POINT('',(20.,1.675,-13.1571428571429));
#328=CARTESIAN_POINT('Origin',(80.,-6.15385016571545E-16,-9.80714285714285));
#329=CARTESIAN_POINT('',(150.,-9.18485099360515E-16,-8.15714285714284));
#330=CARTESIAN_POINT('',(150.,-9.18485099360515E-16,-8.15714285714284));
#331=CARTESIAN_POINT('',(150.,0.,-13.1571428571428));
#332=CARTESIAN_POINT('',(150.,0.,-13.1571428571428));
#333=CARTESIAN_POINT('',(150.,0.,-13.1571428571428));
#334=CARTESIAN_POINT('Origin',(150.,5.,-13.1571428571428));
#335=CARTESIAN_POINT('',(150.,5.,-13.1571428571428));
#336=CARTESIAN_POINT('',(150.,0.,-13.1571428571428));
#337=CARTESIAN_POINT('Origin',(150.,4.14903996194922E-16,-13.1571428571428));
#338=CARTESIAN_POINT('Origin',(80.,0.,-13.1571428571428));
#339=CARTESIAN_POINT('',(150.,5.,-13.1571428571428));
#340=CARTESIAN_POINT('Origin',(80.,3.35,-13.1571428571428));
#341=CARTESIAN_POINT('Origin',(119.,60.,-13.1571428571428));
#342=CARTESIAN_POINT('',(228.,62.5,-13.1571428571428));
#343=CARTESIAN_POINT('',(10.,65.,-13.1571428571429));
#344=CARTESIAN_POINT('',(228.,62.5,-13.1571428571428));
#345=CARTESIAN_POINT('',(228.,60.,-10.6571428571428));
#346=CARTESIAN_POINT('Origin',(228.,60.,-13.1571428571428));
#347=CARTESIAN_POINT('',(10.,60.,-8.15714285714286));
#348=CARTESIAN_POINT('',(228.,60.,-10.6571428571428));
#349=CARTESIAN_POINT('Origin',(10.,60.,-13.1571428571429));
#350=CARTESIAN_POINT('Origin',(10.,60.,-13.1571428571429));
#351=CARTESIAN_POINT('',(10.,60.,-13.1571428571429));
#352=CARTESIAN_POINT('',(10.,60.,-13.1571428571429));
#353=CARTESIAN_POINT('',(10.,60.,-13.1571428571429));
#354=CARTESIAN_POINT('Origin',(228.,62.5,-13.1571428571428));
#355=CARTESIAN_POINT('',(228.,60.,-13.1571428571428));
#356=CARTESIAN_POINT('',(228.,60.,-13.1571428571428));
#357=CARTESIAN_POINT('',(228.,60.,-13.1571428571428));
#358=CARTESIAN_POINT('Origin',(119.,60.,-10.6571428571428));
#359=CARTESIAN_POINT('',(228.,60.,-13.1571428571428));
#360=CARTESIAN_POINT('Origin',(119.,62.5,-13.1571428571428));
#361=CARTESIAN_POINT('Origin',(20.,1.11022302462516E-15,-13.1571428571429));
#362=CARTESIAN_POINT('',(-40.,3.75434945136745E-16,-19.1571428571429));
#363=CARTESIAN_POINT('Origin',(-40.,1.11022302462516E-15,-13.1571428571429));
#364=CARTESIAN_POINT('',(20.,3.75434945136745E-16,-19.1571428571429));
#365=CARTESIAN_POINT('',(20.,3.75434945136745E-16,-19.1571428571429));
#366=CARTESIAN_POINT('Origin',(20.,1.11022302462516E-15,-13.1571428571429));
#367=CARTESIAN_POINT('Origin',(-40.,1.11022302462516E-15,-13.1571428571429));
#368=CARTESIAN_POINT('Origin',(20.,1.11022302462516E-15,-13.1571428571429));
#369=CARTESIAN_POINT('Origin',(10.,60.,-13.1571428571429));
#370=CARTESIAN_POINT('',(-190.,60.,-18.1571428571429));
#371=CARTESIAN_POINT('Origin',(-190.,60.,-13.1571428571429));
#372=CARTESIAN_POINT('',(10.,60.,-18.1571428571429));
#373=CARTESIAN_POINT('',(10.,60.,-18.1571428571429));
#374=CARTESIAN_POINT('Origin',(10.,60.,-13.1571428571429));
#375=CARTESIAN_POINT('Origin',(-190.,60.,-13.1571428571429));
#376=CARTESIAN_POINT('Origin',(10.,60.,-13.1571428571429));
#377=UNCERTAINTY_MEASURE_WITH_UNIT(LENGTH_MEASURE(0.01),#381,
'DISTANCE_ACCURACY_VALUE',
'Maximum model space distance between geometric entities at asserted c
onnectivities');
#378=UNCERTAINTY_MEASURE_WITH_UNIT(LENGTH_MEASURE(0.01),#381,
'DISTANCE_ACCURACY_VALUE',
'Maximum model space distance between geometric entities at asserted c
onnectivities');
#379=(
GEOMETRIC_REPRESENTATION_CONTEXT(3)
GLOBAL_UNCERTAINTY_ASSIGNED_CONTEXT((#377))
GLOBAL_UNIT_ASSIGNED_CONTEXT((#381,#383,#384))
REPRESENTATION_CONTEXT('','3D')
);
#380=(
GEOMETRIC_REPRESENTATION_CONTEXT(3)
GLOBAL_UNCERTAINTY_ASSIGNED_CONTEXT((#378))
GLOBAL_UNIT_ASSIGNED_CONTEXT((#381,#383,#384))
REPRESENTATION_CONTEXT('','3D')
);
#381=(
LENGTH_UNIT()
NAMED_UNIT(*)
SI_UNIT(.MILLI.,.METRE.)
);
#382=(
LENGTH_UNIT()
NAMED_UNIT(*)
SI_UNIT($,.METRE.)
);
#383=(
NAMED_UNIT(*)
PLANE_ANGLE_UNIT()
SI_UNIT($,.RADIAN.)
);
#384=(
NAMED_UNIT(*)
SI_UNIT($,.STERADIAN.)
SOLID_ANGLE_UNIT()
);
#385=SHAPE_DEFINITION_REPRESENTATION(#386,#387);
#386=PRODUCT_DEFINITION_SHAPE('',$,#389);
#387=SHAPE_REPRESENTATION('',(#229),#379);
#388=PRODUCT_DEFINITION_CONTEXT('part definition',#393,'design');
#389=PRODUCT_DEFINITION('al\X\E9soirs o brien','al\X\E9soirs o brien v
2',#390,#388);
#390=PRODUCT_DEFINITION_FORMATION('',$,#395);
#391=PRODUCT_RELATED_PRODUCT_CATEGORY('al\X\E9soirs o brien v2',
'al\X\E9soirs o brien v2',(#395));
#392=APPLICATION_PROTOCOL_DEFINITION('international standard',
'automotive_design',2009,#393);
#393=APPLICATION_CONTEXT(
'Core Data for Automotive Mechanical Design Process');
#394=PRODUCT_CONTEXT('part definition',#393,'mechanical');
#395=PRODUCT('al\X\E9soirs o brien','al\X\E9soirs o brien v2',$,(#394));
#396=PRESENTATION_STYLE_ASSIGNMENT((#397));
#397=SURFACE_STYLE_USAGE(.BOTH.,#398);
#398=SURFACE_SIDE_STYLE('',(#399));
#399=SURFACE_STYLE_FILL_AREA(#400);
#400=FILL_AREA_STYLE('Acier - Satin\X\E9',(#401));
#401=FILL_AREA_STYLE_COLOUR('Acier - Satin\X\E9',#402);
#402=COLOUR_RGB('Acier - Satin\X\E9',0.627450980392157,0.627450980392157,
0.627450980392157);
ENDSEC;
END-ISO-10303-21;
