ISO-10303-21;
HEADER;
/* Generated by software containing ST-Developer
 * from STEP Tools, Inc. (www.steptools.com) 
 */

FILE_DESCRIPTION(
/* description */ (''),
/* implementation_level */ '2;1');

FILE_NAME(
/* name */ 'axe de liaison biellettes v4.step',
/* time_stamp */ '2023-11-24T11:03:21+01:00',
/* author */ (''),
/* organization */ (''),
/* preprocessor_version */ 'ST-DEVELOPER v20',
/* originating_system */ 'Autodesk Translation Framework v12.14.0.127',

/* authorisation */ '');

FILE_SCHEMA (('AUTOMOTIVE_DESIGN { 1 0 10303 214 3 1 1 }'));
ENDSEC;

DATA;
#10=MECHANICAL_DESIGN_GEOMETRIC_PRESENTATION_REPRESENTATION('',(#13),#205);
#11=SHAPE_REPRESENTATION_RELATIONSHIP('SRR','None',#212,#12);
#12=ADVANCED_BREP_SHAPE_REPRESENTATION('',(#14),#204);
#13=STYLED_ITEM('',(#221),#14);
#14=MANIFOLD_SOLID_BREP('Corps1',#109);
#15=FACE_BOUND('',#33,.T.);
#16=FACE_BOUND('',#35,.T.);
#17=FACE_BOUND('',#38,.T.);
#18=PLANE('',#132);
#19=PLANE('',#134);
#20=PLANE('',#137);
#21=CONICAL_SURFACE('',#126,6.25,0.785398163397447);
#22=FACE_OUTER_BOUND('',#29,.T.);
#23=FACE_OUTER_BOUND('',#30,.T.);
#24=FACE_OUTER_BOUND('',#31,.T.);
#25=FACE_OUTER_BOUND('',#32,.T.);
#26=FACE_OUTER_BOUND('',#34,.T.);
#27=FACE_OUTER_BOUND('',#36,.T.);
#28=FACE_OUTER_BOUND('',#37,.T.);
#29=EDGE_LOOP('',(#75,#76,#77,#78));
#30=EDGE_LOOP('',(#79,#80,#81,#82,#83));
#31=EDGE_LOOP('',(#84,#85,#86,#87,#88));
#32=EDGE_LOOP('',(#89));
#33=EDGE_LOOP('',(#90));
#34=EDGE_LOOP('',(#91));
#35=EDGE_LOOP('',(#92));
#36=EDGE_LOOP('',(#93,#94,#95,#96));
#37=EDGE_LOOP('',(#97));
#38=EDGE_LOOP('',(#98));
#39=LINE('',#179,#43);
#40=LINE('',#185,#44);
#41=LINE('',#191,#45);
#42=LINE('',#200,#46);
#43=VECTOR('',#144,2.5175);
#44=VECTOR('',#151,6.25);
#45=VECTOR('',#158,5.);
#46=VECTOR('',#171,10.);
#47=CIRCLE('',#124,2.5175);
#48=CIRCLE('',#125,2.5175);
#49=CIRCLE('',#127,7.5);
#50=CIRCLE('',#128,5.);
#51=CIRCLE('',#129,5.);
#52=CIRCLE('',#131,5.);
#53=CIRCLE('',#133,10.);
#54=CIRCLE('',#136,10.);
#55=VERTEX_POINT('',#176);
#56=VERTEX_POINT('',#178);
#57=VERTEX_POINT('',#182);
#58=VERTEX_POINT('',#184);
#59=VERTEX_POINT('',#186);
#60=VERTEX_POINT('',#190);
#61=VERTEX_POINT('',#194);
#62=VERTEX_POINT('',#198);
#63=EDGE_CURVE('',#55,#55,#47,.T.);
#64=EDGE_CURVE('',#55,#56,#39,.T.);
#65=EDGE_CURVE('',#56,#56,#48,.T.);
#66=EDGE_CURVE('',#57,#57,#49,.T.);
#67=EDGE_CURVE('',#57,#58,#40,.T.);
#68=EDGE_CURVE('',#58,#59,#50,.T.);
#69=EDGE_CURVE('',#59,#58,#51,.T.);
#70=EDGE_CURVE('',#59,#60,#41,.T.);
#71=EDGE_CURVE('',#60,#60,#52,.T.);
#72=EDGE_CURVE('',#61,#61,#53,.T.);
#73=EDGE_CURVE('',#62,#62,#54,.T.);
#74=EDGE_CURVE('',#62,#61,#42,.T.);
#75=ORIENTED_EDGE('',*,*,#63,.F.);
#76=ORIENTED_EDGE('',*,*,#64,.T.);
#77=ORIENTED_EDGE('',*,*,#65,.F.);
#78=ORIENTED_EDGE('',*,*,#64,.F.);
#79=ORIENTED_EDGE('',*,*,#66,.T.);
#80=ORIENTED_EDGE('',*,*,#67,.T.);
#81=ORIENTED_EDGE('',*,*,#68,.T.);
#82=ORIENTED_EDGE('',*,*,#69,.T.);
#83=ORIENTED_EDGE('',*,*,#67,.F.);
#84=ORIENTED_EDGE('',*,*,#68,.F.);
#85=ORIENTED_EDGE('',*,*,#69,.F.);
#86=ORIENTED_EDGE('',*,*,#70,.T.);
#87=ORIENTED_EDGE('',*,*,#71,.T.);
#88=ORIENTED_EDGE('',*,*,#70,.F.);
#89=ORIENTED_EDGE('',*,*,#72,.F.);
#90=ORIENTED_EDGE('',*,*,#66,.F.);
#91=ORIENTED_EDGE('',*,*,#71,.F.);
#92=ORIENTED_EDGE('',*,*,#63,.T.);
#93=ORIENTED_EDGE('',*,*,#73,.F.);
#94=ORIENTED_EDGE('',*,*,#74,.T.);
#95=ORIENTED_EDGE('',*,*,#72,.T.);
#96=ORIENTED_EDGE('',*,*,#74,.F.);
#97=ORIENTED_EDGE('',*,*,#73,.T.);
#98=ORIENTED_EDGE('',*,*,#65,.T.);
#99=CYLINDRICAL_SURFACE('',#123,2.5175);
#100=CYLINDRICAL_SURFACE('',#130,5.);
#101=CYLINDRICAL_SURFACE('',#135,10.);
#102=ADVANCED_FACE('',(#22),#99,.F.);
#103=ADVANCED_FACE('',(#23),#21,.T.);
#104=ADVANCED_FACE('',(#24),#100,.T.);
#105=ADVANCED_FACE('',(#25,#15),#18,.T.);
#106=ADVANCED_FACE('',(#26,#16),#19,.T.);
#107=ADVANCED_FACE('',(#27),#101,.T.);
#108=ADVANCED_FACE('',(#28,#17),#20,.T.);
#109=CLOSED_SHELL('',(#102,#103,#104,#105,#106,#107,#108));
#110=DERIVED_UNIT_ELEMENT(#112,1.);
#111=DERIVED_UNIT_ELEMENT(#207,-3.);
#112=(
MASS_UNIT()
NAMED_UNIT(*)
SI_UNIT(.KILO.,.GRAM.)
);
#113=DERIVED_UNIT((#110,#111));
#114=MEASURE_REPRESENTATION_ITEM('density measure',
POSITIVE_RATIO_MEASURE(7850.),#113);
#115=PROPERTY_DEFINITION_REPRESENTATION(#120,#117);
#116=PROPERTY_DEFINITION_REPRESENTATION(#121,#118);
#117=REPRESENTATION('material name',(#119),#204);
#118=REPRESENTATION('density',(#114),#204);
#119=DESCRIPTIVE_REPRESENTATION_ITEM('Acier','Acier');
#120=PROPERTY_DEFINITION('material property','material name',#214);
#121=PROPERTY_DEFINITION('material property','density of part',#214);
#122=AXIS2_PLACEMENT_3D('',#174,#138,#139);
#123=AXIS2_PLACEMENT_3D('',#175,#140,#141);
#124=AXIS2_PLACEMENT_3D('',#177,#142,#143);
#125=AXIS2_PLACEMENT_3D('',#180,#145,#146);
#126=AXIS2_PLACEMENT_3D('',#181,#147,#148);
#127=AXIS2_PLACEMENT_3D('',#183,#149,#150);
#128=AXIS2_PLACEMENT_3D('',#187,#152,#153);
#129=AXIS2_PLACEMENT_3D('',#188,#154,#155);
#130=AXIS2_PLACEMENT_3D('',#189,#156,#157);
#131=AXIS2_PLACEMENT_3D('',#192,#159,#160);
#132=AXIS2_PLACEMENT_3D('',#193,#161,#162);
#133=AXIS2_PLACEMENT_3D('',#195,#163,#164);
#134=AXIS2_PLACEMENT_3D('',#196,#165,#166);
#135=AXIS2_PLACEMENT_3D('',#197,#167,#168);
#136=AXIS2_PLACEMENT_3D('',#199,#169,#170);
#137=AXIS2_PLACEMENT_3D('',#201,#172,#173);
#138=DIRECTION('axis',(0.,0.,1.));
#139=DIRECTION('refdir',(1.,0.,0.));
#140=DIRECTION('center_axis',(-1.,0.,1.22464679914735E-16));
#141=DIRECTION('ref_axis',(0.,1.,0.));
#142=DIRECTION('center_axis',(-1.,0.,1.22464679914735E-16));
#143=DIRECTION('ref_axis',(0.,1.,0.));
#144=DIRECTION('',(-1.,0.,1.22464679914735E-16));
#145=DIRECTION('center_axis',(1.,0.,-1.22464679914735E-16));
#146=DIRECTION('ref_axis',(0.,1.,0.));
#147=DIRECTION('center_axis',(-1.,0.,1.22464679914735E-16));
#148=DIRECTION('ref_axis',(-1.24600756483762E-16,0.,-1.));
#149=DIRECTION('center_axis',(1.,0.,-1.22464679914735E-16));
#150=DIRECTION('ref_axis',(-1.22464679914735E-16,0.,-1.));
#151=DIRECTION('',(0.707106781186548,-8.65956056235492E-17,-0.707106781186547));
#152=DIRECTION('center_axis',(-1.,0.,1.22464679914735E-16));
#153=DIRECTION('ref_axis',(-1.27804871337302E-16,0.,-1.));
#154=DIRECTION('center_axis',(-1.,0.,1.22464679914735E-16));
#155=DIRECTION('ref_axis',(-1.27804871337302E-16,0.,-1.));
#156=DIRECTION('center_axis',(-1.,0.,1.22464679914735E-16));
#157=DIRECTION('ref_axis',(1.27804871337302E-16,0.,1.));
#158=DIRECTION('',(1.,0.,-1.22464679914735E-16));
#159=DIRECTION('center_axis',(-1.,0.,1.22464679914735E-16));
#160=DIRECTION('ref_axis',(1.22464679914735E-16,0.,1.));
#161=DIRECTION('center_axis',(1.,0.,-1.22464679914735E-16));
#162=DIRECTION('ref_axis',(-1.22464679914735E-16,0.,-1.));
#163=DIRECTION('center_axis',(-1.,0.,1.22464679914735E-16));
#164=DIRECTION('ref_axis',(1.22464679914735E-16,0.,1.));
#165=DIRECTION('center_axis',(1.,0.,-1.22464679914735E-16));
#166=DIRECTION('ref_axis',(-1.22464679914735E-16,0.,-1.));
#167=DIRECTION('center_axis',(-1.,0.,1.22464679914735E-16));
#168=DIRECTION('ref_axis',(1.27804871337302E-16,0.,1.));
#169=DIRECTION('center_axis',(-1.,0.,1.22464679914735E-16));
#170=DIRECTION('ref_axis',(1.22464679914735E-16,0.,1.));
#171=DIRECTION('',(1.,0.,-1.22464679914735E-16));
#172=DIRECTION('center_axis',(-1.,0.,1.22464679914735E-16));
#173=DIRECTION('ref_axis',(1.22464679914735E-16,0.,1.));
#174=CARTESIAN_POINT('',(0.,0.,0.));
#175=CARTESIAN_POINT('Origin',(7.65,0.,-1.18982506656973E-15));
#176=CARTESIAN_POINT('',(17.,-2.5175,-2.02656499208716E-15));
#177=CARTESIAN_POINT('Origin',(17.,0.,-2.33486982377251E-15));
#178=CARTESIAN_POINT('',(-3.77564525285123E-32,-2.5175,-5.61275096907355E-16));
#179=CARTESIAN_POINT('',(7.65,-2.5175,-8.81520234884388E-16));
#180=CARTESIAN_POINT('Origin',(0.,0.,-2.52970265222009E-16));
#181=CARTESIAN_POINT('Origin',(3.25,0.,-3.9801020972289E-16));
#182=CARTESIAN_POINT('',(2.,-9.18485099360515E-16,7.5));
#183=CARTESIAN_POINT('Origin',(2.,0.,-2.44929359829471E-16));
#184=CARTESIAN_POINT('',(4.5,6.12323399573677E-16,5.));
#185=CARTESIAN_POINT('',(3.25,7.65404249467096E-16,6.25));
#186=CARTESIAN_POINT('',(4.5,-6.12323399573677E-16,-5.));
#187=CARTESIAN_POINT('Origin',(4.5,0.,-5.51091059616309E-16));
#188=CARTESIAN_POINT('Origin',(4.5,0.,-5.51091059616309E-16));
#189=CARTESIAN_POINT('Origin',(9.5,0.,-1.16341445918999E-15));
#190=CARTESIAN_POINT('',(17.,-6.12323399573677E-16,-5.));
#191=CARTESIAN_POINT('',(9.5,-6.12323399573677E-16,-5.));
#192=CARTESIAN_POINT('Origin',(17.,0.,-2.0818995585505E-15));
#193=CARTESIAN_POINT('Origin',(2.,0.,10.));
#194=CARTESIAN_POINT('',(2.,-1.22464679914735E-15,-10.));
#195=CARTESIAN_POINT('Origin',(2.,0.,-2.44929359829471E-16));
#196=CARTESIAN_POINT('Origin',(17.,0.,5.));
#197=CARTESIAN_POINT('Origin',(0.999999999999999,0.,-1.22464679914735E-16));
#198=CARTESIAN_POINT('',(-2.4980018054066E-15,-1.22464679914735E-15,-10.));
#199=CARTESIAN_POINT('Origin',(-1.22464679914735E-15,0.,8.19944245938412E-32));
#200=CARTESIAN_POINT('',(0.999999999999998,-1.22464679914735E-15,-10.));
#201=CARTESIAN_POINT('Origin',(0.,0.,0.));
#202=UNCERTAINTY_MEASURE_WITH_UNIT(LENGTH_MEASURE(0.01),#206,
'DISTANCE_ACCURACY_VALUE',
'Maximum model space distance between geometric entities at asserted c
onnectivities');
#203=UNCERTAINTY_MEASURE_WITH_UNIT(LENGTH_MEASURE(0.01),#206,
'DISTANCE_ACCURACY_VALUE',
'Maximum model space distance between geometric entities at asserted c
onnectivities');
#204=(
GEOMETRIC_REPRESENTATION_CONTEXT(3)
GLOBAL_UNCERTAINTY_ASSIGNED_CONTEXT((#202))
GLOBAL_UNIT_ASSIGNED_CONTEXT((#206,#208,#209))
REPRESENTATION_CONTEXT('','3D')
);
#205=(
GEOMETRIC_REPRESENTATION_CONTEXT(3)
GLOBAL_UNCERTAINTY_ASSIGNED_CONTEXT((#203))
GLOBAL_UNIT_ASSIGNED_CONTEXT((#206,#208,#209))
REPRESENTATION_CONTEXT('','3D')
);
#206=(
LENGTH_UNIT()
NAMED_UNIT(*)
SI_UNIT(.MILLI.,.METRE.)
);
#207=(
LENGTH_UNIT()
NAMED_UNIT(*)
SI_UNIT($,.METRE.)
);
#208=(
NAMED_UNIT(*)
PLANE_ANGLE_UNIT()
SI_UNIT($,.RADIAN.)
);
#209=(
NAMED_UNIT(*)
SI_UNIT($,.STERADIAN.)
SOLID_ANGLE_UNIT()
);
#210=SHAPE_DEFINITION_REPRESENTATION(#211,#212);
#211=PRODUCT_DEFINITION_SHAPE('',$,#214);
#212=SHAPE_REPRESENTATION('',(#122),#204);
#213=PRODUCT_DEFINITION_CONTEXT('part definition',#218,'design');
#214=PRODUCT_DEFINITION('axe de liaison biellettes',
'axe de liaison biellettes v4',#215,#213);
#215=PRODUCT_DEFINITION_FORMATION('',$,#220);
#216=PRODUCT_RELATED_PRODUCT_CATEGORY('axe de liaison biellettes v4',
'axe de liaison biellettes v4',(#220));
#217=APPLICATION_PROTOCOL_DEFINITION('international standard',
'automotive_design',2009,#218);
#218=APPLICATION_CONTEXT(
'Core Data for Automotive Mechanical Design Process');
#219=PRODUCT_CONTEXT('part definition',#218,'mechanical');
#220=PRODUCT('axe de liaison biellettes','axe de liaison biellettes v4',
$,(#219));
#221=PRESENTATION_STYLE_ASSIGNMENT((#222));
#222=SURFACE_STYLE_USAGE(.BOTH.,#223);
#223=SURFACE_SIDE_STYLE('',(#224));
#224=SURFACE_STYLE_FILL_AREA(#225);
#225=FILL_AREA_STYLE('Acier - Satin\X\E9',(#226));
#226=FILL_AREA_STYLE_COLOUR('Acier - Satin\X\E9',#227);
#227=COLOUR_RGB('Acier - Satin\X\E9',0.627450980392157,0.627450980392157,
0.627450980392157);
ENDSEC;
END-ISO-10303-21;
