ISO-10303-21;
HEADER;
/* Generated by software containing ST-Developer
 * from STEP Tools, Inc. (www.steptools.com) 
 */

FILE_DESCRIPTION(
/* description */ (''),
/* implementation_level */ '2;1');

FILE_NAME(
/* name */ 'DronePiece1b.step',
/* time_stamp */ '2023-11-03T15:30:07+01:00',
/* author */ (''),
/* organization */ (''),
/* preprocessor_version */ 'ST-DEVELOPER v20',
/* originating_system */ 'Autodesk Translation Framework v12.14.0.127',

/* authorisation */ '');

FILE_SCHEMA (('AUTOMOTIVE_DESIGN { 1 0 10303 214 3 1 1 }'));
ENDSEC;

DATA;
#10=MECHANICAL_DESIGN_GEOMETRIC_PRESENTATION_REPRESENTATION('',(#13),#572);
#11=SHAPE_REPRESENTATION_RELATIONSHIP('SRR','None',#579,#12);
#12=ADVANCED_BREP_SHAPE_REPRESENTATION('',(#14),#571);
#13=STYLED_ITEM('',(#589),#14);
#14=MANIFOLD_SOLID_BREP('Corps5',#328);
#15=FACE_BOUND('',#46,.T.);
#16=FACE_BOUND('',#53,.T.);
#17=FACE_BOUND('',#57,.T.);
#18=FACE_BOUND('',#63,.T.);
#19=PLANE('',#345);
#20=PLANE('',#347);
#21=PLANE('',#361);
#22=PLANE('',#362);
#23=PLANE('',#363);
#24=PLANE('',#366);
#25=PLANE('',#375);
#26=PLANE('',#376);
#27=FACE_OUTER_BOUND('',#44,.T.);
#28=FACE_OUTER_BOUND('',#45,.T.);
#29=FACE_OUTER_BOUND('',#47,.T.);
#30=FACE_OUTER_BOUND('',#48,.T.);
#31=FACE_OUTER_BOUND('',#49,.T.);
#32=FACE_OUTER_BOUND('',#50,.T.);
#33=FACE_OUTER_BOUND('',#51,.T.);
#34=FACE_OUTER_BOUND('',#52,.T.);
#35=FACE_OUTER_BOUND('',#54,.T.);
#36=FACE_OUTER_BOUND('',#55,.T.);
#37=FACE_OUTER_BOUND('',#56,.T.);
#38=FACE_OUTER_BOUND('',#58,.T.);
#39=FACE_OUTER_BOUND('',#59,.T.);
#40=FACE_OUTER_BOUND('',#60,.T.);
#41=FACE_OUTER_BOUND('',#61,.T.);
#42=FACE_OUTER_BOUND('',#62,.T.);
#43=FACE_OUTER_BOUND('',#64,.T.);
#44=EDGE_LOOP('',(#212,#213,#214,#215));
#45=EDGE_LOOP('',(#216,#217,#218,#219));
#46=EDGE_LOOP('',(#220));
#47=EDGE_LOOP('',(#221,#222,#223,#224,#225,#226,#227,#228,#229,#230,#231,
#232,#233));
#48=EDGE_LOOP('',(#234,#235,#236,#237));
#49=EDGE_LOOP('',(#238,#239,#240,#241));
#50=EDGE_LOOP('',(#242,#243,#244,#245));
#51=EDGE_LOOP('',(#246,#247,#248,#249));
#52=EDGE_LOOP('',(#250,#251,#252,#253));
#53=EDGE_LOOP('',(#254));
#54=EDGE_LOOP('',(#255,#256,#257,#258));
#55=EDGE_LOOP('',(#259,#260,#261,#262));
#56=EDGE_LOOP('',(#263,#264,#265,#266));
#57=EDGE_LOOP('',(#267));
#58=EDGE_LOOP('',(#268,#269,#270,#271));
#59=EDGE_LOOP('',(#272,#273,#274,#275));
#60=EDGE_LOOP('',(#276,#277,#278,#279));
#61=EDGE_LOOP('',(#280,#281,#282,#283));
#62=EDGE_LOOP('',(#284,#285,#286,#287));
#63=EDGE_LOOP('',(#288));
#64=EDGE_LOOP('',(#289,#290,#291,#292,#293,#294,#295,#296,#297,#298,#299,
#300,#301));
#65=CIRCLE('',#343,9.16);
#66=CIRCLE('',#344,9.16);
#67=CIRCLE('',#346,1.5);
#68=CIRCLE('',#348,3.00000000000001);
#69=CIRCLE('',#349,4.99999999999997);
#70=CIRCLE('',#350,13.8086425983384);
#71=CIRCLE('',#351,13.8086425983384);
#72=CIRCLE('',#352,4.99999999999997);
#73=CIRCLE('',#353,3.00000000000001);
#74=CIRCLE('',#355,1.5);
#75=CIRCLE('',#357,1.49999999999999);
#76=CIRCLE('',#358,1.49999999999999);
#77=CIRCLE('',#360,3.00000000000001);
#78=CIRCLE('',#365,3.00000000000001);
#79=CIRCLE('',#368,4.99999999999997);
#80=CIRCLE('',#370,13.8086425983384);
#81=CIRCLE('',#372,13.8086425983384);
#82=CIRCLE('',#374,4.99999999999997);
#83=LINE('',#480,#110);
#84=LINE('',#484,#111);
#85=LINE('',#488,#112);
#86=LINE('',#490,#113);
#87=LINE('',#491,#114);
#88=LINE('',#496,#115);
#89=LINE('',#498,#116);
#90=LINE('',#502,#117);
#91=LINE('',#512,#118);
#92=LINE('',#515,#119);
#93=LINE('',#519,#120);
#94=LINE('',#524,#121);
#95=LINE('',#528,#122);
#96=LINE('',#531,#123);
#97=LINE('',#533,#124);
#98=LINE('',#536,#125);
#99=LINE('',#537,#126);
#100=LINE('',#540,#127);
#101=LINE('',#541,#128);
#102=LINE('',#545,#129);
#103=LINE('',#548,#130);
#104=LINE('',#549,#131);
#105=LINE('',#553,#132);
#106=LINE('',#557,#133);
#107=LINE('',#561,#134);
#108=LINE('',#565,#135);
#109=LINE('',#567,#136);
#110=VECTOR('',#381,10.);
#111=VECTOR('',#384,10.);
#112=VECTOR('',#389,10.);
#113=VECTOR('',#390,10.);
#114=VECTOR('',#391,10.);
#115=VECTOR('',#396,10.);
#116=VECTOR('',#397,10.);
#117=VECTOR('',#400,10.);
#118=VECTOR('',#409,10.);
#119=VECTOR('',#412,10.);
#120=VECTOR('',#417,1.5);
#121=VECTOR('',#422,1.49999999999999);
#122=VECTOR('',#427,10.);
#123=VECTOR('',#430,10.);
#124=VECTOR('',#433,10.);
#125=VECTOR('',#436,10.);
#126=VECTOR('',#437,10.);
#127=VECTOR('',#440,10.);
#128=VECTOR('',#441,10.);
#129=VECTOR('',#446,10.);
#130=VECTOR('',#449,10.);
#131=VECTOR('',#450,10.);
#132=VECTOR('',#455,10.);
#133=VECTOR('',#460,10.);
#134=VECTOR('',#465,10.);
#135=VECTOR('',#470,10.);
#136=VECTOR('',#473,10.);
#137=VERTEX_POINT('',#478);
#138=VERTEX_POINT('',#479);
#139=VERTEX_POINT('',#481);
#140=VERTEX_POINT('',#483);
#141=VERTEX_POINT('',#487);
#142=VERTEX_POINT('',#489);
#143=VERTEX_POINT('',#492);
#144=VERTEX_POINT('',#495);
#145=VERTEX_POINT('',#497);
#146=VERTEX_POINT('',#499);
#147=VERTEX_POINT('',#501);
#148=VERTEX_POINT('',#503);
#149=VERTEX_POINT('',#505);
#150=VERTEX_POINT('',#507);
#151=VERTEX_POINT('',#509);
#152=VERTEX_POINT('',#511);
#153=VERTEX_POINT('',#513);
#154=VERTEX_POINT('',#517);
#155=VERTEX_POINT('',#521);
#156=VERTEX_POINT('',#523);
#157=VERTEX_POINT('',#527);
#158=VERTEX_POINT('',#529);
#159=VERTEX_POINT('',#535);
#160=VERTEX_POINT('',#539);
#161=VERTEX_POINT('',#543);
#162=VERTEX_POINT('',#547);
#163=VERTEX_POINT('',#551);
#164=VERTEX_POINT('',#555);
#165=VERTEX_POINT('',#559);
#166=VERTEX_POINT('',#563);
#167=EDGE_CURVE('',#137,#138,#83,.T.);
#168=EDGE_CURVE('',#139,#137,#65,.T.);
#169=EDGE_CURVE('',#140,#139,#84,.T.);
#170=EDGE_CURVE('',#138,#140,#66,.T.);
#171=EDGE_CURVE('',#141,#139,#85,.T.);
#172=EDGE_CURVE('',#141,#142,#86,.T.);
#173=EDGE_CURVE('',#140,#142,#87,.T.);
#174=EDGE_CURVE('',#143,#143,#67,.T.);
#175=EDGE_CURVE('',#137,#144,#88,.T.);
#176=EDGE_CURVE('',#145,#144,#89,.T.);
#177=EDGE_CURVE('',#145,#146,#68,.T.);
#178=EDGE_CURVE('',#147,#146,#90,.T.);
#179=EDGE_CURVE('',#148,#147,#69,.T.);
#180=EDGE_CURVE('',#148,#149,#70,.T.);
#181=EDGE_CURVE('',#149,#150,#71,.T.);
#182=EDGE_CURVE('',#151,#150,#72,.T.);
#183=EDGE_CURVE('',#151,#152,#91,.T.);
#184=EDGE_CURVE('',#152,#153,#73,.T.);
#185=EDGE_CURVE('',#153,#141,#92,.T.);
#186=EDGE_CURVE('',#154,#154,#74,.T.);
#187=EDGE_CURVE('',#154,#143,#93,.T.);
#188=EDGE_CURVE('',#155,#155,#75,.T.);
#189=EDGE_CURVE('',#155,#156,#94,.T.);
#190=EDGE_CURVE('',#156,#156,#76,.T.);
#191=EDGE_CURVE('',#152,#157,#95,.T.);
#192=EDGE_CURVE('',#158,#157,#77,.T.);
#193=EDGE_CURVE('',#153,#158,#96,.T.);
#194=EDGE_CURVE('',#142,#158,#97,.T.);
#195=EDGE_CURVE('',#159,#138,#98,.T.);
#196=EDGE_CURVE('',#144,#159,#99,.T.);
#197=EDGE_CURVE('',#160,#159,#100,.T.);
#198=EDGE_CURVE('',#145,#160,#101,.T.);
#199=EDGE_CURVE('',#161,#160,#78,.T.);
#200=EDGE_CURVE('',#146,#161,#102,.T.);
#201=EDGE_CURVE('',#162,#161,#103,.T.);
#202=EDGE_CURVE('',#147,#162,#104,.T.);
#203=EDGE_CURVE('',#163,#162,#79,.T.);
#204=EDGE_CURVE('',#148,#163,#105,.T.);
#205=EDGE_CURVE('',#164,#163,#80,.T.);
#206=EDGE_CURVE('',#149,#164,#106,.T.);
#207=EDGE_CURVE('',#165,#164,#81,.T.);
#208=EDGE_CURVE('',#150,#165,#107,.T.);
#209=EDGE_CURVE('',#166,#165,#82,.T.);
#210=EDGE_CURVE('',#151,#166,#108,.T.);
#211=EDGE_CURVE('',#157,#166,#109,.T.);
#212=ORIENTED_EDGE('',*,*,#167,.F.);
#213=ORIENTED_EDGE('',*,*,#168,.F.);
#214=ORIENTED_EDGE('',*,*,#169,.F.);
#215=ORIENTED_EDGE('',*,*,#170,.F.);
#216=ORIENTED_EDGE('',*,*,#169,.T.);
#217=ORIENTED_EDGE('',*,*,#171,.F.);
#218=ORIENTED_EDGE('',*,*,#172,.T.);
#219=ORIENTED_EDGE('',*,*,#173,.F.);
#220=ORIENTED_EDGE('',*,*,#174,.T.);
#221=ORIENTED_EDGE('',*,*,#168,.T.);
#222=ORIENTED_EDGE('',*,*,#175,.T.);
#223=ORIENTED_EDGE('',*,*,#176,.F.);
#224=ORIENTED_EDGE('',*,*,#177,.T.);
#225=ORIENTED_EDGE('',*,*,#178,.F.);
#226=ORIENTED_EDGE('',*,*,#179,.F.);
#227=ORIENTED_EDGE('',*,*,#180,.T.);
#228=ORIENTED_EDGE('',*,*,#181,.T.);
#229=ORIENTED_EDGE('',*,*,#182,.F.);
#230=ORIENTED_EDGE('',*,*,#183,.T.);
#231=ORIENTED_EDGE('',*,*,#184,.T.);
#232=ORIENTED_EDGE('',*,*,#185,.T.);
#233=ORIENTED_EDGE('',*,*,#171,.T.);
#234=ORIENTED_EDGE('',*,*,#186,.F.);
#235=ORIENTED_EDGE('',*,*,#187,.T.);
#236=ORIENTED_EDGE('',*,*,#174,.F.);
#237=ORIENTED_EDGE('',*,*,#187,.F.);
#238=ORIENTED_EDGE('',*,*,#188,.F.);
#239=ORIENTED_EDGE('',*,*,#189,.T.);
#240=ORIENTED_EDGE('',*,*,#190,.F.);
#241=ORIENTED_EDGE('',*,*,#189,.F.);
#242=ORIENTED_EDGE('',*,*,#184,.F.);
#243=ORIENTED_EDGE('',*,*,#191,.T.);
#244=ORIENTED_EDGE('',*,*,#192,.F.);
#245=ORIENTED_EDGE('',*,*,#193,.F.);
#246=ORIENTED_EDGE('',*,*,#185,.F.);
#247=ORIENTED_EDGE('',*,*,#193,.T.);
#248=ORIENTED_EDGE('',*,*,#194,.F.);
#249=ORIENTED_EDGE('',*,*,#172,.F.);
#250=ORIENTED_EDGE('',*,*,#167,.T.);
#251=ORIENTED_EDGE('',*,*,#195,.F.);
#252=ORIENTED_EDGE('',*,*,#196,.F.);
#253=ORIENTED_EDGE('',*,*,#175,.F.);
#254=ORIENTED_EDGE('',*,*,#190,.T.);
#255=ORIENTED_EDGE('',*,*,#176,.T.);
#256=ORIENTED_EDGE('',*,*,#196,.T.);
#257=ORIENTED_EDGE('',*,*,#197,.F.);
#258=ORIENTED_EDGE('',*,*,#198,.F.);
#259=ORIENTED_EDGE('',*,*,#177,.F.);
#260=ORIENTED_EDGE('',*,*,#198,.T.);
#261=ORIENTED_EDGE('',*,*,#199,.F.);
#262=ORIENTED_EDGE('',*,*,#200,.F.);
#263=ORIENTED_EDGE('',*,*,#178,.T.);
#264=ORIENTED_EDGE('',*,*,#200,.T.);
#265=ORIENTED_EDGE('',*,*,#201,.F.);
#266=ORIENTED_EDGE('',*,*,#202,.F.);
#267=ORIENTED_EDGE('',*,*,#188,.T.);
#268=ORIENTED_EDGE('',*,*,#179,.T.);
#269=ORIENTED_EDGE('',*,*,#202,.T.);
#270=ORIENTED_EDGE('',*,*,#203,.F.);
#271=ORIENTED_EDGE('',*,*,#204,.F.);
#272=ORIENTED_EDGE('',*,*,#180,.F.);
#273=ORIENTED_EDGE('',*,*,#204,.T.);
#274=ORIENTED_EDGE('',*,*,#205,.F.);
#275=ORIENTED_EDGE('',*,*,#206,.F.);
#276=ORIENTED_EDGE('',*,*,#181,.F.);
#277=ORIENTED_EDGE('',*,*,#206,.T.);
#278=ORIENTED_EDGE('',*,*,#207,.F.);
#279=ORIENTED_EDGE('',*,*,#208,.F.);
#280=ORIENTED_EDGE('',*,*,#182,.T.);
#281=ORIENTED_EDGE('',*,*,#208,.T.);
#282=ORIENTED_EDGE('',*,*,#209,.F.);
#283=ORIENTED_EDGE('',*,*,#210,.F.);
#284=ORIENTED_EDGE('',*,*,#183,.F.);
#285=ORIENTED_EDGE('',*,*,#210,.T.);
#286=ORIENTED_EDGE('',*,*,#211,.F.);
#287=ORIENTED_EDGE('',*,*,#191,.F.);
#288=ORIENTED_EDGE('',*,*,#186,.T.);
#289=ORIENTED_EDGE('',*,*,#170,.T.);
#290=ORIENTED_EDGE('',*,*,#173,.T.);
#291=ORIENTED_EDGE('',*,*,#194,.T.);
#292=ORIENTED_EDGE('',*,*,#192,.T.);
#293=ORIENTED_EDGE('',*,*,#211,.T.);
#294=ORIENTED_EDGE('',*,*,#209,.T.);
#295=ORIENTED_EDGE('',*,*,#207,.T.);
#296=ORIENTED_EDGE('',*,*,#205,.T.);
#297=ORIENTED_EDGE('',*,*,#203,.T.);
#298=ORIENTED_EDGE('',*,*,#201,.T.);
#299=ORIENTED_EDGE('',*,*,#199,.T.);
#300=ORIENTED_EDGE('',*,*,#197,.T.);
#301=ORIENTED_EDGE('',*,*,#195,.T.);
#302=CYLINDRICAL_SURFACE('',#342,9.16);
#303=CYLINDRICAL_SURFACE('',#354,1.5);
#304=CYLINDRICAL_SURFACE('',#356,1.49999999999999);
#305=CYLINDRICAL_SURFACE('',#359,3.00000000000001);
#306=CYLINDRICAL_SURFACE('',#364,3.00000000000001);
#307=CYLINDRICAL_SURFACE('',#367,4.99999999999997);
#308=CYLINDRICAL_SURFACE('',#369,13.8086425983384);
#309=CYLINDRICAL_SURFACE('',#371,13.8086425983384);
#310=CYLINDRICAL_SURFACE('',#373,4.99999999999997);
#311=ADVANCED_FACE('',(#27),#302,.F.);
#312=ADVANCED_FACE('',(#28,#15),#19,.T.);
#313=ADVANCED_FACE('',(#29),#20,.T.);
#314=ADVANCED_FACE('',(#30),#303,.F.);
#315=ADVANCED_FACE('',(#31),#304,.F.);
#316=ADVANCED_FACE('',(#32),#305,.T.);
#317=ADVANCED_FACE('',(#33),#21,.T.);
#318=ADVANCED_FACE('',(#34,#16),#22,.T.);
#319=ADVANCED_FACE('',(#35),#23,.T.);
#320=ADVANCED_FACE('',(#36),#306,.T.);
#321=ADVANCED_FACE('',(#37,#17),#24,.T.);
#322=ADVANCED_FACE('',(#38),#307,.F.);
#323=ADVANCED_FACE('',(#39),#308,.T.);
#324=ADVANCED_FACE('',(#40),#309,.T.);
#325=ADVANCED_FACE('',(#41),#310,.F.);
#326=ADVANCED_FACE('',(#42,#18),#25,.T.);
#327=ADVANCED_FACE('',(#43),#26,.F.);
#328=CLOSED_SHELL('',(#311,#312,#313,#314,#315,#316,#317,#318,#319,#320,
#321,#322,#323,#324,#325,#326,#327));
#329=DERIVED_UNIT_ELEMENT(#331,1.);
#330=DERIVED_UNIT_ELEMENT(#574,-3.);
#331=(
MASS_UNIT()
NAMED_UNIT(*)
SI_UNIT(.KILO.,.GRAM.)
);
#332=DERIVED_UNIT((#329,#330));
#333=MEASURE_REPRESENTATION_ITEM('density measure',
POSITIVE_RATIO_MEASURE(7850.),#332);
#334=PROPERTY_DEFINITION_REPRESENTATION(#339,#336);
#335=PROPERTY_DEFINITION_REPRESENTATION(#340,#337);
#336=REPRESENTATION('material name',(#338),#571);
#337=REPRESENTATION('density',(#333),#571);
#338=DESCRIPTIVE_REPRESENTATION_ITEM('Acier','Acier');
#339=PROPERTY_DEFINITION('material property','material name',#581);
#340=PROPERTY_DEFINITION('material property','density of part',#581);
#341=AXIS2_PLACEMENT_3D('',#476,#377,#378);
#342=AXIS2_PLACEMENT_3D('',#477,#379,#380);
#343=AXIS2_PLACEMENT_3D('',#482,#382,#383);
#344=AXIS2_PLACEMENT_3D('',#485,#385,#386);
#345=AXIS2_PLACEMENT_3D('',#486,#387,#388);
#346=AXIS2_PLACEMENT_3D('',#493,#392,#393);
#347=AXIS2_PLACEMENT_3D('',#494,#394,#395);
#348=AXIS2_PLACEMENT_3D('',#500,#398,#399);
#349=AXIS2_PLACEMENT_3D('',#504,#401,#402);
#350=AXIS2_PLACEMENT_3D('',#506,#403,#404);
#351=AXIS2_PLACEMENT_3D('',#508,#405,#406);
#352=AXIS2_PLACEMENT_3D('',#510,#407,#408);
#353=AXIS2_PLACEMENT_3D('',#514,#410,#411);
#354=AXIS2_PLACEMENT_3D('',#516,#413,#414);
#355=AXIS2_PLACEMENT_3D('',#518,#415,#416);
#356=AXIS2_PLACEMENT_3D('',#520,#418,#419);
#357=AXIS2_PLACEMENT_3D('',#522,#420,#421);
#358=AXIS2_PLACEMENT_3D('',#525,#423,#424);
#359=AXIS2_PLACEMENT_3D('',#526,#425,#426);
#360=AXIS2_PLACEMENT_3D('',#530,#428,#429);
#361=AXIS2_PLACEMENT_3D('',#532,#431,#432);
#362=AXIS2_PLACEMENT_3D('',#534,#434,#435);
#363=AXIS2_PLACEMENT_3D('',#538,#438,#439);
#364=AXIS2_PLACEMENT_3D('',#542,#442,#443);
#365=AXIS2_PLACEMENT_3D('',#544,#444,#445);
#366=AXIS2_PLACEMENT_3D('',#546,#447,#448);
#367=AXIS2_PLACEMENT_3D('',#550,#451,#452);
#368=AXIS2_PLACEMENT_3D('',#552,#453,#454);
#369=AXIS2_PLACEMENT_3D('',#554,#456,#457);
#370=AXIS2_PLACEMENT_3D('',#556,#458,#459);
#371=AXIS2_PLACEMENT_3D('',#558,#461,#462);
#372=AXIS2_PLACEMENT_3D('',#560,#463,#464);
#373=AXIS2_PLACEMENT_3D('',#562,#466,#467);
#374=AXIS2_PLACEMENT_3D('',#564,#468,#469);
#375=AXIS2_PLACEMENT_3D('',#566,#471,#472);
#376=AXIS2_PLACEMENT_3D('',#568,#474,#475);
#377=DIRECTION('axis',(0.,0.,1.));
#378=DIRECTION('refdir',(1.,0.,0.));
#379=DIRECTION('center_axis',(-1.,0.,0.));
#380=DIRECTION('ref_axis',(0.,1.,0.));
#381=DIRECTION('',(-1.,0.,0.));
#382=DIRECTION('center_axis',(-1.,0.,0.));
#383=DIRECTION('ref_axis',(0.,1.,0.));
#384=DIRECTION('',(1.,0.,0.));
#385=DIRECTION('center_axis',(1.,0.,0.));
#386=DIRECTION('ref_axis',(0.,1.,0.));
#387=DIRECTION('center_axis',(0.,0.,-1.));
#388=DIRECTION('ref_axis',(0.,-1.,0.));
#389=DIRECTION('',(0.,1.,0.));
#390=DIRECTION('',(-1.,0.,0.));
#391=DIRECTION('',(0.,-1.,0.));
#392=DIRECTION('center_axis',(0.,0.,1.));
#393=DIRECTION('ref_axis',(-1.,0.,0.));
#394=DIRECTION('center_axis',(1.,0.,0.));
#395=DIRECTION('ref_axis',(0.,1.,0.));
#396=DIRECTION('',(0.,1.,0.));
#397=DIRECTION('',(0.,-2.2204460492503E-15,-1.));
#398=DIRECTION('center_axis',(1.,0.,0.));
#399=DIRECTION('ref_axis',(0.,1.,5.92118946466749E-15));
#400=DIRECTION('',(0.,1.,6.85095701042637E-16));
#401=DIRECTION('center_axis',(1.,0.,0.));
#402=DIRECTION('ref_axis',(0.,-0.847946284118251,-0.530082162735222));
#403=DIRECTION('center_axis',(1.,0.,0.));
#404=DIRECTION('ref_axis',(0.,0.849905979551998,0.526934365857608));
#405=DIRECTION('center_axis',(1.,0.,0.));
#406=DIRECTION('ref_axis',(0.,-0.0495814167638937,0.998770085210648));
#407=DIRECTION('center_axis',(1.,0.,0.));
#408=DIRECTION('ref_axis',(0.,-3.10862446895045E-15,-1.));
#409=DIRECTION('',(0.,-1.,3.42547850521318E-16));
#410=DIRECTION('center_axis',(1.,0.,0.));
#411=DIRECTION('ref_axis',(0.,0.,1.));
#412=DIRECTION('',(0.,2.2204460492503E-15,-1.));
#413=DIRECTION('center_axis',(0.,0.,-1.));
#414=DIRECTION('ref_axis',(-1.,0.,0.));
#415=DIRECTION('center_axis',(0.,-3.42547850521318E-16,-1.));
#416=DIRECTION('ref_axis',(-1.,0.,0.));
#417=DIRECTION('',(0.,0.,-1.));
#418=DIRECTION('center_axis',(0.,0.,-1.));
#419=DIRECTION('ref_axis',(-1.,0.,0.));
#420=DIRECTION('center_axis',(0.,6.85095701042637E-16,-1.));
#421=DIRECTION('ref_axis',(-1.,0.,0.));
#422=DIRECTION('',(0.,0.,-1.));
#423=DIRECTION('center_axis',(0.,0.,1.));
#424=DIRECTION('ref_axis',(-1.,0.,0.));
#425=DIRECTION('center_axis',(-1.,0.,0.));
#426=DIRECTION('ref_axis',(0.,0.,1.));
#427=DIRECTION('',(-1.,0.,0.));
#428=DIRECTION('center_axis',(-1.,0.,0.));
#429=DIRECTION('ref_axis',(0.,0.,1.));
#430=DIRECTION('',(-1.,0.,0.));
#431=DIRECTION('center_axis',(0.,-1.,-2.2204460492503E-15));
#432=DIRECTION('ref_axis',(0.,-2.2204460492503E-15,1.));
#433=DIRECTION('',(0.,-2.2204460492503E-15,1.));
#434=DIRECTION('center_axis',(0.,0.,-1.));
#435=DIRECTION('ref_axis',(0.,-1.,0.));
#436=DIRECTION('',(0.,-1.,0.));
#437=DIRECTION('',(-1.,0.,0.));
#438=DIRECTION('center_axis',(0.,1.,-2.2204460492503E-15));
#439=DIRECTION('ref_axis',(0.,-2.2204460492503E-15,-1.));
#440=DIRECTION('',(0.,-2.2204460492503E-15,-1.));
#441=DIRECTION('',(-1.,0.,0.));
#442=DIRECTION('center_axis',(-1.,0.,0.));
#443=DIRECTION('ref_axis',(0.,1.,5.92118946466749E-15));
#444=DIRECTION('center_axis',(-1.,0.,0.));
#445=DIRECTION('ref_axis',(0.,1.,5.92118946466749E-15));
#446=DIRECTION('',(-1.,0.,0.));
#447=DIRECTION('center_axis',(0.,-6.85095701042637E-16,1.));
#448=DIRECTION('ref_axis',(0.,1.,6.85095701042637E-16));
#449=DIRECTION('',(0.,1.,6.85095701042637E-16));
#450=DIRECTION('',(-1.,0.,0.));
#451=DIRECTION('center_axis',(-1.,0.,0.));
#452=DIRECTION('ref_axis',(0.,-0.847946284118251,-0.530082162735222));
#453=DIRECTION('center_axis',(1.,0.,0.));
#454=DIRECTION('ref_axis',(0.,-0.847946284118251,-0.530082162735222));
#455=DIRECTION('',(-1.,0.,0.));
#456=DIRECTION('center_axis',(-1.,0.,0.));
#457=DIRECTION('ref_axis',(0.,0.849905979551998,0.526934365857608));
#458=DIRECTION('center_axis',(-1.,0.,0.));
#459=DIRECTION('ref_axis',(0.,0.849905979551998,0.526934365857608));
#460=DIRECTION('',(-1.,0.,0.));
#461=DIRECTION('center_axis',(-1.,0.,0.));
#462=DIRECTION('ref_axis',(0.,-0.0495814167638937,0.998770085210648));
#463=DIRECTION('center_axis',(-1.,0.,0.));
#464=DIRECTION('ref_axis',(0.,-0.0495814167638937,0.998770085210648));
#465=DIRECTION('',(-1.,0.,0.));
#466=DIRECTION('center_axis',(-1.,0.,0.));
#467=DIRECTION('ref_axis',(0.,-3.10862446895045E-15,-1.));
#468=DIRECTION('center_axis',(1.,0.,0.));
#469=DIRECTION('ref_axis',(0.,-3.10862446895045E-15,-1.));
#470=DIRECTION('',(-1.,0.,0.));
#471=DIRECTION('center_axis',(0.,3.42547850521318E-16,1.));
#472=DIRECTION('ref_axis',(0.,1.,-3.42547850521318E-16));
#473=DIRECTION('',(0.,1.,-3.42547850521318E-16));
#474=DIRECTION('center_axis',(1.,0.,0.));
#475=DIRECTION('ref_axis',(0.,1.,0.));
#476=CARTESIAN_POINT('',(0.,0.,0.));
#477=CARTESIAN_POINT('Origin',(-57.3597742341193,22.9123096535842,83.1824670158933));
#478=CARTESIAN_POINT('',(-57.3597742341193,32.0723096535842,83.1824670158933));
#479=CARTESIAN_POINT('',(-67.3597742341193,32.0723096535842,83.1824670158933));
#480=CARTESIAN_POINT('',(-57.3597742341193,32.0723096535842,83.1824670158933));
#481=CARTESIAN_POINT('',(-57.3597742341193,13.7523096535842,83.1824670158933));
#482=CARTESIAN_POINT('Origin',(-57.3597742341193,22.9123096535842,83.1824670158933));
#483=CARTESIAN_POINT('',(-67.3597742341193,13.7523096535842,83.1824670158933));
#484=CARTESIAN_POINT('',(-57.3597742341193,13.7523096535842,83.1824670158933));
#485=CARTESIAN_POINT('Origin',(-67.3597742341193,22.9123096535842,83.1824670158933));
#486=CARTESIAN_POINT('Origin',(-57.3597742341193,13.9023096535842,83.1824670158933));
#487=CARTESIAN_POINT('',(-57.3597742341193,-8.34311469788148,83.1824670158933));
#488=CARTESIAN_POINT('',(-57.3597742341193,-66.7463699217899,83.1824670158933));
#489=CARTESIAN_POINT('',(-67.3597742341193,-8.34311469788148,83.1824670158933));
#490=CARTESIAN_POINT('',(-57.3597742341193,-8.34311469788148,83.1824670158933));
#491=CARTESIAN_POINT('',(-67.3597742341193,-66.7463699217899,83.1824670158933));
#492=CARTESIAN_POINT('',(-60.8597742341193,1.13903384244961,83.1824670158933));
#493=CARTESIAN_POINT('Origin',(-62.3597742341193,1.13903384244961,83.1824670158933));
#494=CARTESIAN_POINT('Origin',(-57.3597742341193,22.9123096535842,16.5323155676255));
#495=CARTESIAN_POINT('',(-57.3597742341193,54.1677340050498,83.1824670158933));
#496=CARTESIAN_POINT('',(-57.3597742341193,-66.7463699217899,83.1824670158933));
#497=CARTESIAN_POINT('',(-57.3597742341193,54.1677340050498,85.1824670158934));
#498=CARTESIAN_POINT('',(-57.3597742341193,54.1677340050498,85.1824670158934));
#499=CARTESIAN_POINT('',(-57.3597742341193,51.1677340050498,88.1824670158933));
#500=CARTESIAN_POINT('Origin',(-57.3597742341193,51.1677340050498,85.1824670158933));
#501=CARTESIAN_POINT('',(-57.3597742341193,38.2034369243876,88.1824670158933));
#502=CARTESIAN_POINT('',(-57.3597742341193,38.2034369243876,88.1824670158933));
#503=CARTESIAN_POINT('',(-57.3597742341193,33.9637055037965,90.5320562022173));
#504=CARTESIAN_POINT('Origin',(-57.3597742341193,38.2034369243876,93.1824670158933));
#505=CARTESIAN_POINT('',(-57.3597742341193,22.9123096535842,97.0474670158934));
#506=CARTESIAN_POINT('Origin',(-57.3597742341193,22.2276575899723,83.2558078713075));
#507=CARTESIAN_POINT('',(-57.3597742341193,11.8609138033718,90.5320562022173));
#508=CARTESIAN_POINT('Origin',(-57.3597742341193,23.596961717196,83.2558078713075));
#509=CARTESIAN_POINT('',(-57.3597742341193,7.62118238278069,88.1824670158933));
#510=CARTESIAN_POINT('Origin',(-57.3597742341193,7.6211823827807,93.1824670158933));
#511=CARTESIAN_POINT('',(-57.3597742341193,-5.34311469788147,88.1824670158933));
#512=CARTESIAN_POINT('',(-57.3597742341193,7.62118238278069,88.1824670158933));
#513=CARTESIAN_POINT('',(-57.3597742341193,-8.34311469788148,85.1824670158934));
#514=CARTESIAN_POINT('Origin',(-57.3597742341193,-5.34311469788147,85.1824670158933));
#515=CARTESIAN_POINT('',(-57.3597742341193,-8.34311469788148,85.1824670158934));
#516=CARTESIAN_POINT('Origin',(-62.3597742341193,1.13903384244961,143.182467015893));
#517=CARTESIAN_POINT('',(-60.8597742341193,1.13903384244961,88.1824670158933));
#518=CARTESIAN_POINT('Origin',(-62.3597742341193,1.13903384244961,88.1824670158933));
#519=CARTESIAN_POINT('',(-60.8597742341193,1.13903384244961,143.182467015893));
#520=CARTESIAN_POINT('Origin',(-62.3597742341193,44.6855854647187,143.182467015893));
#521=CARTESIAN_POINT('',(-60.8597742341193,44.6855854647187,88.1824670158933));
#522=CARTESIAN_POINT('Origin',(-62.3597742341193,44.6855854647187,88.1824670158933));
#523=CARTESIAN_POINT('',(-60.8597742341193,44.6855854647187,83.1824670158933));
#524=CARTESIAN_POINT('',(-60.8597742341193,44.6855854647187,143.182467015893));
#525=CARTESIAN_POINT('Origin',(-62.3597742341193,44.6855854647187,83.1824670158933));
#526=CARTESIAN_POINT('Origin',(-57.3597742341193,-5.34311469788147,85.1824670158933));
#527=CARTESIAN_POINT('',(-67.3597742341193,-5.34311469788147,88.1824670158933));
#528=CARTESIAN_POINT('',(-57.3597742341193,-5.34311469788147,88.1824670158933));
#529=CARTESIAN_POINT('',(-67.3597742341193,-8.34311469788148,85.1824670158934));
#530=CARTESIAN_POINT('Origin',(-67.3597742341193,-5.34311469788147,85.1824670158933));
#531=CARTESIAN_POINT('',(-57.3597742341193,-8.34311469788148,85.1824670158934));
#532=CARTESIAN_POINT('Origin',(-57.3597742341193,-8.34311469788148,83.1824670158933));
#533=CARTESIAN_POINT('',(-67.3597742341193,-8.34311469788148,85.1824670158934));
#534=CARTESIAN_POINT('Origin',(-57.3597742341193,54.1677340050498,83.1824670158933));
#535=CARTESIAN_POINT('',(-67.3597742341193,54.1677340050498,83.1824670158933));
#536=CARTESIAN_POINT('',(-67.3597742341193,-66.7463699217899,83.1824670158933));
#537=CARTESIAN_POINT('',(-57.3597742341193,54.1677340050498,83.1824670158933));
#538=CARTESIAN_POINT('Origin',(-57.3597742341193,54.1677340050498,85.1824670158934));
#539=CARTESIAN_POINT('',(-67.3597742341193,54.1677340050498,85.1824670158934));
#540=CARTESIAN_POINT('',(-67.3597742341193,54.1677340050498,85.1824670158934));
#541=CARTESIAN_POINT('',(-57.3597742341193,54.1677340050498,85.1824670158934));
#542=CARTESIAN_POINT('Origin',(-57.3597742341193,51.1677340050498,85.1824670158933));
#543=CARTESIAN_POINT('',(-67.3597742341193,51.1677340050498,88.1824670158933));
#544=CARTESIAN_POINT('Origin',(-67.3597742341193,51.1677340050498,85.1824670158933));
#545=CARTESIAN_POINT('',(-57.3597742341193,51.1677340050498,88.1824670158933));
#546=CARTESIAN_POINT('Origin',(-57.3597742341193,38.2034369243876,88.1824670158933));
#547=CARTESIAN_POINT('',(-67.3597742341193,38.2034369243876,88.1824670158933));
#548=CARTESIAN_POINT('',(-67.3597742341193,38.2034369243876,88.1824670158933));
#549=CARTESIAN_POINT('',(-57.3597742341193,38.2034369243876,88.1824670158933));
#550=CARTESIAN_POINT('Origin',(-57.3597742341193,38.2034369243876,93.1824670158933));
#551=CARTESIAN_POINT('',(-67.3597742341193,33.9637055037965,90.5320562022173));
#552=CARTESIAN_POINT('Origin',(-67.3597742341193,38.2034369243876,93.1824670158933));
#553=CARTESIAN_POINT('',(-57.3597742341193,33.9637055037965,90.5320562022173));
#554=CARTESIAN_POINT('Origin',(-57.3597742341193,22.2276575899723,83.2558078713075));
#555=CARTESIAN_POINT('',(-67.3597742341193,22.9123096535842,97.0474670158934));
#556=CARTESIAN_POINT('Origin',(-67.3597742341193,22.2276575899723,83.2558078713075));
#557=CARTESIAN_POINT('',(-57.3597742341193,22.9123096535842,97.0474670158934));
#558=CARTESIAN_POINT('Origin',(-57.3597742341193,23.596961717196,83.2558078713075));
#559=CARTESIAN_POINT('',(-67.3597742341193,11.8609138033718,90.5320562022173));
#560=CARTESIAN_POINT('Origin',(-67.3597742341193,23.596961717196,83.2558078713075));
#561=CARTESIAN_POINT('',(-57.3597742341193,11.8609138033718,90.5320562022173));
#562=CARTESIAN_POINT('Origin',(-57.3597742341193,7.6211823827807,93.1824670158933));
#563=CARTESIAN_POINT('',(-67.3597742341193,7.62118238278069,88.1824670158933));
#564=CARTESIAN_POINT('Origin',(-67.3597742341193,7.6211823827807,93.1824670158933));
#565=CARTESIAN_POINT('',(-57.3597742341193,7.62118238278069,88.1824670158933));
#566=CARTESIAN_POINT('Origin',(-57.3597742341193,-5.34311469788147,88.1824670158933));
#567=CARTESIAN_POINT('',(-67.3597742341193,7.62118238278069,88.1824670158933));
#568=CARTESIAN_POINT('Origin',(-67.3597742341193,22.9123096535842,16.5323155676255));
#569=UNCERTAINTY_MEASURE_WITH_UNIT(LENGTH_MEASURE(0.01),#573,
'DISTANCE_ACCURACY_VALUE',
'Maximum model space distance between geometric entities at asserted c
onnectivities');
#570=UNCERTAINTY_MEASURE_WITH_UNIT(LENGTH_MEASURE(0.01),#573,
'DISTANCE_ACCURACY_VALUE',
'Maximum model space distance between geometric entities at asserted c
onnectivities');
#571=(
GEOMETRIC_REPRESENTATION_CONTEXT(3)
GLOBAL_UNCERTAINTY_ASSIGNED_CONTEXT((#569))
GLOBAL_UNIT_ASSIGNED_CONTEXT((#573,#575,#576))
REPRESENTATION_CONTEXT('','3D')
);
#572=(
GEOMETRIC_REPRESENTATION_CONTEXT(3)
GLOBAL_UNCERTAINTY_ASSIGNED_CONTEXT((#570))
GLOBAL_UNIT_ASSIGNED_CONTEXT((#573,#575,#576))
REPRESENTATION_CONTEXT('','3D')
);
#573=(
LENGTH_UNIT()
NAMED_UNIT(*)
SI_UNIT(.MILLI.,.METRE.)
);
#574=(
LENGTH_UNIT()
NAMED_UNIT(*)
SI_UNIT($,.METRE.)
);
#575=(
NAMED_UNIT(*)
PLANE_ANGLE_UNIT()
SI_UNIT($,.RADIAN.)
);
#576=(
NAMED_UNIT(*)
SI_UNIT($,.STERADIAN.)
SOLID_ANGLE_UNIT()
);
#577=SHAPE_DEFINITION_REPRESENTATION(#578,#579);
#578=PRODUCT_DEFINITION_SHAPE('',$,#581);
#579=SHAPE_REPRESENTATION('',(#341),#571);
#580=PRODUCT_DEFINITION_CONTEXT('part definition',#585,'design');
#581=PRODUCT_DEFINITION('(Non enregistr\X\E9)','(Non enregistr\X\E9)',#582,
#580);
#582=PRODUCT_DEFINITION_FORMATION('',$,#587);
#583=PRODUCT_RELATED_PRODUCT_CATEGORY('(Non enregistr\X\E9)',
'(Non enregistr\X\E9)',(#587));
#584=APPLICATION_PROTOCOL_DEFINITION('international standard',
'automotive_design',2009,#585);
#585=APPLICATION_CONTEXT(
'Core Data for Automotive Mechanical Design Process');
#586=PRODUCT_CONTEXT('part definition',#585,'mechanical');
#587=PRODUCT('(Non enregistr\X\E9)','(Non enregistr\X\E9)',$,(#586));
#588=PRESENTATION_STYLE_ASSIGNMENT((#590));
#589=PRESENTATION_STYLE_ASSIGNMENT((#591));
#590=SURFACE_STYLE_USAGE(.BOTH.,#592);
#591=SURFACE_STYLE_USAGE(.BOTH.,#593);
#592=SURFACE_SIDE_STYLE('',(#594));
#593=SURFACE_SIDE_STYLE('',(#595));
#594=SURFACE_STYLE_FILL_AREA(#596);
#595=SURFACE_STYLE_FILL_AREA(#597);
#596=FILL_AREA_STYLE('Acier - Satin\X\E9',(#598));
#597=FILL_AREA_STYLE('Opaque(160,160,160)',(#599));
#598=FILL_AREA_STYLE_COLOUR('Acier - Satin\X\E9',#600);
#599=FILL_AREA_STYLE_COLOUR('Opaque(160,160,160)',#601);
#600=COLOUR_RGB('Acier - Satin\X\E9',0.627450980392157,0.627450980392157,
0.627450980392157);
#601=COLOUR_RGB('Opaque(160,160,160)',0.627450980392157,0.627450980392157,
0.627450980392157);
ENDSEC;
END-ISO-10303-21;
