ISO-10303-21;
HEADER;
/* Generated by software containing ST-Developer
 * from STEP Tools, Inc. (www.steptools.com) 
 */

FILE_DESCRIPTION(
/* description */ (''),
/* implementation_level */ '2;1');

FILE_NAME(
/* name */ 'pivot v6.step',
/* time_stamp */ '2023-11-24T11:04:42+01:00',
/* author */ (''),
/* organization */ (''),
/* preprocessor_version */ 'ST-DEVELOPER v20',
/* originating_system */ 'Autodesk Translation Framework v12.14.0.127',

/* authorisation */ '');

FILE_SCHEMA (('AUTOMOTIVE_DESIGN { 1 0 10303 214 3 1 1 }'));
ENDSEC;

DATA;
#10=MECHANICAL_DESIGN_GEOMETRIC_PRESENTATION_REPRESENTATION('',(#13),#614);
#11=SHAPE_REPRESENTATION_RELATIONSHIP('SRR','None',#621,#12);
#12=ADVANCED_BREP_SHAPE_REPRESENTATION('',(#14),#613);
#13=STYLED_ITEM('',(#630),#14);
#14=MANIFOLD_SOLID_BREP('Corps1',#345);
#15=FACE_BOUND('',#80,.T.);
#16=FACE_BOUND('',#81,.T.);
#17=FACE_BOUND('',#82,.T.);
#18=FACE_BOUND('',#83,.T.);
#19=FACE_BOUND('',#84,.T.);
#20=FACE_BOUND('',#85,.T.);
#21=FACE_BOUND('',#86,.T.);
#22=FACE_BOUND('',#88,.T.);
#23=FACE_BOUND('',#91,.T.);
#24=FACE_BOUND('',#94,.T.);
#25=FACE_BOUND('',#95,.T.);
#26=FACE_BOUND('',#96,.T.);
#27=FACE_BOUND('',#97,.T.);
#28=FACE_BOUND('',#98,.T.);
#29=FACE_BOUND('',#99,.T.);
#30=PLANE('',#396);
#31=PLANE('',#398);
#32=PLANE('',#402);
#33=PLANE('',#405);
#34=CYLINDRICAL_SURFACE('',#362,2.5175);
#35=CYLINDRICAL_SURFACE('',#367,2.5175);
#36=CYLINDRICAL_SURFACE('',#372,2.5175);
#37=CYLINDRICAL_SURFACE('',#377,2.5175);
#38=CYLINDRICAL_SURFACE('',#382,2.5175);
#39=CYLINDRICAL_SURFACE('',#387,2.5175);
#40=CYLINDRICAL_SURFACE('',#391,2.5175);
#41=CYLINDRICAL_SURFACE('',#400,7.5);
#42=CYLINDRICAL_SURFACE('',#403,28.);
#43=FACE_OUTER_BOUND('',#64,.T.);
#44=FACE_OUTER_BOUND('',#65,.T.);
#45=FACE_OUTER_BOUND('',#66,.T.);
#46=FACE_OUTER_BOUND('',#67,.T.);
#47=FACE_OUTER_BOUND('',#68,.T.);
#48=FACE_OUTER_BOUND('',#69,.T.);
#49=FACE_OUTER_BOUND('',#70,.T.);
#50=FACE_OUTER_BOUND('',#71,.T.);
#51=FACE_OUTER_BOUND('',#72,.T.);
#52=FACE_OUTER_BOUND('',#73,.T.);
#53=FACE_OUTER_BOUND('',#74,.T.);
#54=FACE_OUTER_BOUND('',#75,.T.);
#55=FACE_OUTER_BOUND('',#76,.T.);
#56=FACE_OUTER_BOUND('',#77,.T.);
#57=FACE_OUTER_BOUND('',#78,.T.);
#58=FACE_OUTER_BOUND('',#79,.T.);
#59=FACE_OUTER_BOUND('',#87,.T.);
#60=FACE_OUTER_BOUND('',#89,.T.);
#61=FACE_OUTER_BOUND('',#90,.T.);
#62=FACE_OUTER_BOUND('',#92,.T.);
#63=FACE_OUTER_BOUND('',#93,.T.);
#64=EDGE_LOOP('',(#230,#231,#232,#233));
#65=EDGE_LOOP('',(#234,#235,#236,#237));
#66=EDGE_LOOP('',(#238,#239,#240,#241));
#67=EDGE_LOOP('',(#242,#243,#244,#245));
#68=EDGE_LOOP('',(#246,#247,#248,#249));
#69=EDGE_LOOP('',(#250,#251,#252,#253));
#70=EDGE_LOOP('',(#254,#255,#256,#257));
#71=EDGE_LOOP('',(#258,#259,#260,#261));
#72=EDGE_LOOP('',(#262,#263,#264,#265));
#73=EDGE_LOOP('',(#266,#267,#268,#269));
#74=EDGE_LOOP('',(#270,#271,#272,#273));
#75=EDGE_LOOP('',(#274,#275,#276,#277));
#76=EDGE_LOOP('',(#278,#279,#280));
#77=EDGE_LOOP('',(#281,#282,#283,#284));
#78=EDGE_LOOP('',(#285,#286,#287,#288));
#79=EDGE_LOOP('',(#289));
#80=EDGE_LOOP('',(#290));
#81=EDGE_LOOP('',(#291));
#82=EDGE_LOOP('',(#292));
#83=EDGE_LOOP('',(#293));
#84=EDGE_LOOP('',(#294));
#85=EDGE_LOOP('',(#295));
#86=EDGE_LOOP('',(#296));
#87=EDGE_LOOP('',(#297));
#88=EDGE_LOOP('',(#298));
#89=EDGE_LOOP('',(#299,#300,#301,#302));
#90=EDGE_LOOP('',(#303));
#91=EDGE_LOOP('',(#304));
#92=EDGE_LOOP('',(#305,#306,#307,#308));
#93=EDGE_LOOP('',(#309));
#94=EDGE_LOOP('',(#310));
#95=EDGE_LOOP('',(#311));
#96=EDGE_LOOP('',(#312));
#97=EDGE_LOOP('',(#313));
#98=EDGE_LOOP('',(#314));
#99=EDGE_LOOP('',(#315));
#100=LINE('',#524,#117);
#101=LINE('',#528,#118);
#102=LINE('',#534,#119);
#103=LINE('',#538,#120);
#104=LINE('',#544,#121);
#105=LINE('',#548,#122);
#106=LINE('',#554,#123);
#107=LINE('',#558,#124);
#108=LINE('',#564,#125);
#109=LINE('',#568,#126);
#110=LINE('',#574,#127);
#111=LINE('',#578,#128);
#112=LINE('',#584,#129);
#113=LINE('',#588,#130);
#114=LINE('',#593,#131);
#115=LINE('',#604,#132);
#116=LINE('',#609,#133);
#117=VECTOR('',#412,3.50875);
#118=VECTOR('',#417,2.5175);
#119=VECTOR('',#424,3.50875);
#120=VECTOR('',#429,2.5175);
#121=VECTOR('',#436,3.50875);
#122=VECTOR('',#441,2.5175);
#123=VECTOR('',#448,3.50875);
#124=VECTOR('',#453,2.5175);
#125=VECTOR('',#460,3.50875);
#126=VECTOR('',#465,2.5175);
#127=VECTOR('',#472,3.50875);
#128=VECTOR('',#477,2.5175);
#129=VECTOR('',#484,1.25875);
#130=VECTOR('',#489,2.5175);
#131=VECTOR('',#494,10.);
#132=VECTOR('',#509,7.5);
#133=VECTOR('',#516,28.);
#134=CIRCLE('',#360,4.5);
#135=CIRCLE('',#361,2.5175);
#136=CIRCLE('',#363,2.5175);
#137=CIRCLE('',#365,4.5);
#138=CIRCLE('',#366,2.5175);
#139=CIRCLE('',#368,2.5175);
#140=CIRCLE('',#370,4.5);
#141=CIRCLE('',#371,2.5175);
#142=CIRCLE('',#373,2.5175);
#143=CIRCLE('',#375,4.5);
#144=CIRCLE('',#376,2.5175);
#145=CIRCLE('',#378,2.5175);
#146=CIRCLE('',#380,4.5);
#147=CIRCLE('',#381,2.5175);
#148=CIRCLE('',#383,2.5175);
#149=CIRCLE('',#385,4.5);
#150=CIRCLE('',#386,2.5175);
#151=CIRCLE('',#388,2.5175);
#152=CIRCLE('',#390,2.5175);
#153=CIRCLE('',#392,2.5175);
#154=CIRCLE('',#394,10.5);
#155=CIRCLE('',#395,9.5);
#156=CIRCLE('',#397,28.);
#157=CIRCLE('',#399,7.5);
#158=CIRCLE('',#401,7.5);
#159=CIRCLE('',#404,28.);
#160=VERTEX_POINT('',#521);
#161=VERTEX_POINT('',#523);
#162=VERTEX_POINT('',#527);
#163=VERTEX_POINT('',#531);
#164=VERTEX_POINT('',#533);
#165=VERTEX_POINT('',#537);
#166=VERTEX_POINT('',#541);
#167=VERTEX_POINT('',#543);
#168=VERTEX_POINT('',#547);
#169=VERTEX_POINT('',#551);
#170=VERTEX_POINT('',#553);
#171=VERTEX_POINT('',#557);
#172=VERTEX_POINT('',#561);
#173=VERTEX_POINT('',#563);
#174=VERTEX_POINT('',#567);
#175=VERTEX_POINT('',#571);
#176=VERTEX_POINT('',#573);
#177=VERTEX_POINT('',#577);
#178=VERTEX_POINT('',#581);
#179=VERTEX_POINT('',#583);
#180=VERTEX_POINT('',#586);
#181=VERTEX_POINT('',#590);
#182=VERTEX_POINT('',#592);
#183=VERTEX_POINT('',#596);
#184=VERTEX_POINT('',#599);
#185=VERTEX_POINT('',#602);
#186=VERTEX_POINT('',#607);
#187=EDGE_CURVE('',#160,#160,#134,.T.);
#188=EDGE_CURVE('',#160,#161,#100,.T.);
#189=EDGE_CURVE('',#161,#161,#135,.T.);
#190=EDGE_CURVE('',#161,#162,#101,.T.);
#191=EDGE_CURVE('',#162,#162,#136,.T.);
#192=EDGE_CURVE('',#163,#163,#137,.T.);
#193=EDGE_CURVE('',#163,#164,#102,.T.);
#194=EDGE_CURVE('',#164,#164,#138,.T.);
#195=EDGE_CURVE('',#164,#165,#103,.T.);
#196=EDGE_CURVE('',#165,#165,#139,.T.);
#197=EDGE_CURVE('',#166,#166,#140,.T.);
#198=EDGE_CURVE('',#166,#167,#104,.T.);
#199=EDGE_CURVE('',#167,#167,#141,.T.);
#200=EDGE_CURVE('',#167,#168,#105,.T.);
#201=EDGE_CURVE('',#168,#168,#142,.T.);
#202=EDGE_CURVE('',#169,#169,#143,.T.);
#203=EDGE_CURVE('',#169,#170,#106,.T.);
#204=EDGE_CURVE('',#170,#170,#144,.T.);
#205=EDGE_CURVE('',#170,#171,#107,.T.);
#206=EDGE_CURVE('',#171,#171,#145,.T.);
#207=EDGE_CURVE('',#172,#172,#146,.T.);
#208=EDGE_CURVE('',#172,#173,#108,.T.);
#209=EDGE_CURVE('',#173,#173,#147,.T.);
#210=EDGE_CURVE('',#173,#174,#109,.T.);
#211=EDGE_CURVE('',#174,#174,#148,.T.);
#212=EDGE_CURVE('',#175,#175,#149,.T.);
#213=EDGE_CURVE('',#175,#176,#110,.T.);
#214=EDGE_CURVE('',#176,#176,#150,.T.);
#215=EDGE_CURVE('',#176,#177,#111,.T.);
#216=EDGE_CURVE('',#177,#177,#151,.T.);
#217=EDGE_CURVE('',#178,#178,#152,.T.);
#218=EDGE_CURVE('',#178,#179,#112,.T.);
#219=EDGE_CURVE('',#180,#180,#153,.T.);
#220=EDGE_CURVE('',#180,#178,#113,.T.);
#221=EDGE_CURVE('',#181,#181,#154,.T.);
#222=EDGE_CURVE('',#181,#182,#114,.T.);
#223=EDGE_CURVE('',#182,#182,#155,.T.);
#224=EDGE_CURVE('',#183,#183,#156,.T.);
#225=EDGE_CURVE('',#184,#184,#157,.T.);
#226=EDGE_CURVE('',#185,#185,#158,.T.);
#227=EDGE_CURVE('',#185,#184,#115,.T.);
#228=EDGE_CURVE('',#186,#186,#159,.T.);
#229=EDGE_CURVE('',#186,#183,#116,.T.);
#230=ORIENTED_EDGE('',*,*,#187,.F.);
#231=ORIENTED_EDGE('',*,*,#188,.T.);
#232=ORIENTED_EDGE('',*,*,#189,.T.);
#233=ORIENTED_EDGE('',*,*,#188,.F.);
#234=ORIENTED_EDGE('',*,*,#189,.F.);
#235=ORIENTED_EDGE('',*,*,#190,.T.);
#236=ORIENTED_EDGE('',*,*,#191,.F.);
#237=ORIENTED_EDGE('',*,*,#190,.F.);
#238=ORIENTED_EDGE('',*,*,#192,.F.);
#239=ORIENTED_EDGE('',*,*,#193,.T.);
#240=ORIENTED_EDGE('',*,*,#194,.T.);
#241=ORIENTED_EDGE('',*,*,#193,.F.);
#242=ORIENTED_EDGE('',*,*,#194,.F.);
#243=ORIENTED_EDGE('',*,*,#195,.T.);
#244=ORIENTED_EDGE('',*,*,#196,.F.);
#245=ORIENTED_EDGE('',*,*,#195,.F.);
#246=ORIENTED_EDGE('',*,*,#197,.F.);
#247=ORIENTED_EDGE('',*,*,#198,.T.);
#248=ORIENTED_EDGE('',*,*,#199,.T.);
#249=ORIENTED_EDGE('',*,*,#198,.F.);
#250=ORIENTED_EDGE('',*,*,#199,.F.);
#251=ORIENTED_EDGE('',*,*,#200,.T.);
#252=ORIENTED_EDGE('',*,*,#201,.F.);
#253=ORIENTED_EDGE('',*,*,#200,.F.);
#254=ORIENTED_EDGE('',*,*,#202,.F.);
#255=ORIENTED_EDGE('',*,*,#203,.T.);
#256=ORIENTED_EDGE('',*,*,#204,.T.);
#257=ORIENTED_EDGE('',*,*,#203,.F.);
#258=ORIENTED_EDGE('',*,*,#204,.F.);
#259=ORIENTED_EDGE('',*,*,#205,.T.);
#260=ORIENTED_EDGE('',*,*,#206,.F.);
#261=ORIENTED_EDGE('',*,*,#205,.F.);
#262=ORIENTED_EDGE('',*,*,#207,.F.);
#263=ORIENTED_EDGE('',*,*,#208,.T.);
#264=ORIENTED_EDGE('',*,*,#209,.T.);
#265=ORIENTED_EDGE('',*,*,#208,.F.);
#266=ORIENTED_EDGE('',*,*,#209,.F.);
#267=ORIENTED_EDGE('',*,*,#210,.T.);
#268=ORIENTED_EDGE('',*,*,#211,.F.);
#269=ORIENTED_EDGE('',*,*,#210,.F.);
#270=ORIENTED_EDGE('',*,*,#212,.F.);
#271=ORIENTED_EDGE('',*,*,#213,.T.);
#272=ORIENTED_EDGE('',*,*,#214,.T.);
#273=ORIENTED_EDGE('',*,*,#213,.F.);
#274=ORIENTED_EDGE('',*,*,#214,.F.);
#275=ORIENTED_EDGE('',*,*,#215,.T.);
#276=ORIENTED_EDGE('',*,*,#216,.F.);
#277=ORIENTED_EDGE('',*,*,#215,.F.);
#278=ORIENTED_EDGE('',*,*,#217,.F.);
#279=ORIENTED_EDGE('',*,*,#218,.T.);
#280=ORIENTED_EDGE('',*,*,#218,.F.);
#281=ORIENTED_EDGE('',*,*,#219,.F.);
#282=ORIENTED_EDGE('',*,*,#220,.T.);
#283=ORIENTED_EDGE('',*,*,#217,.T.);
#284=ORIENTED_EDGE('',*,*,#220,.F.);
#285=ORIENTED_EDGE('',*,*,#221,.T.);
#286=ORIENTED_EDGE('',*,*,#222,.T.);
#287=ORIENTED_EDGE('',*,*,#223,.T.);
#288=ORIENTED_EDGE('',*,*,#222,.F.);
#289=ORIENTED_EDGE('',*,*,#224,.F.);
#290=ORIENTED_EDGE('',*,*,#187,.T.);
#291=ORIENTED_EDGE('',*,*,#192,.T.);
#292=ORIENTED_EDGE('',*,*,#197,.T.);
#293=ORIENTED_EDGE('',*,*,#202,.T.);
#294=ORIENTED_EDGE('',*,*,#207,.T.);
#295=ORIENTED_EDGE('',*,*,#212,.T.);
#296=ORIENTED_EDGE('',*,*,#221,.F.);
#297=ORIENTED_EDGE('',*,*,#225,.F.);
#298=ORIENTED_EDGE('',*,*,#219,.T.);
#299=ORIENTED_EDGE('',*,*,#226,.F.);
#300=ORIENTED_EDGE('',*,*,#227,.T.);
#301=ORIENTED_EDGE('',*,*,#225,.T.);
#302=ORIENTED_EDGE('',*,*,#227,.F.);
#303=ORIENTED_EDGE('',*,*,#223,.F.);
#304=ORIENTED_EDGE('',*,*,#226,.T.);
#305=ORIENTED_EDGE('',*,*,#228,.F.);
#306=ORIENTED_EDGE('',*,*,#229,.T.);
#307=ORIENTED_EDGE('',*,*,#224,.T.);
#308=ORIENTED_EDGE('',*,*,#229,.F.);
#309=ORIENTED_EDGE('',*,*,#228,.T.);
#310=ORIENTED_EDGE('',*,*,#191,.T.);
#311=ORIENTED_EDGE('',*,*,#196,.T.);
#312=ORIENTED_EDGE('',*,*,#201,.T.);
#313=ORIENTED_EDGE('',*,*,#206,.T.);
#314=ORIENTED_EDGE('',*,*,#211,.T.);
#315=ORIENTED_EDGE('',*,*,#216,.T.);
#316=CONICAL_SURFACE('',#359,3.50875,0.785398163397448);
#317=CONICAL_SURFACE('',#364,3.50875,0.785398163397448);
#318=CONICAL_SURFACE('',#369,3.50875,0.785398163397448);
#319=CONICAL_SURFACE('',#374,3.50875,0.785398163397448);
#320=CONICAL_SURFACE('',#379,3.50875,0.785398163397448);
#321=CONICAL_SURFACE('',#384,3.50875,0.785398163397448);
#322=CONICAL_SURFACE('',#389,1.25875,1.02974425867665);
#323=CONICAL_SURFACE('',#393,10.,0.785398163397447);
#324=ADVANCED_FACE('',(#43),#316,.F.);
#325=ADVANCED_FACE('',(#44),#34,.F.);
#326=ADVANCED_FACE('',(#45),#317,.F.);
#327=ADVANCED_FACE('',(#46),#35,.F.);
#328=ADVANCED_FACE('',(#47),#318,.F.);
#329=ADVANCED_FACE('',(#48),#36,.F.);
#330=ADVANCED_FACE('',(#49),#319,.F.);
#331=ADVANCED_FACE('',(#50),#37,.F.);
#332=ADVANCED_FACE('',(#51),#320,.F.);
#333=ADVANCED_FACE('',(#52),#38,.F.);
#334=ADVANCED_FACE('',(#53),#321,.F.);
#335=ADVANCED_FACE('',(#54),#39,.F.);
#336=ADVANCED_FACE('',(#55),#322,.F.);
#337=ADVANCED_FACE('',(#56),#40,.F.);
#338=ADVANCED_FACE('',(#57),#323,.T.);
#339=ADVANCED_FACE('',(#58,#15,#16,#17,#18,#19,#20,#21),#30,.T.);
#340=ADVANCED_FACE('',(#59,#22),#31,.T.);
#341=ADVANCED_FACE('',(#60),#41,.T.);
#342=ADVANCED_FACE('',(#61,#23),#32,.T.);
#343=ADVANCED_FACE('',(#62),#42,.T.);
#344=ADVANCED_FACE('',(#63,#24,#25,#26,#27,#28,#29),#33,.T.);
#345=CLOSED_SHELL('',(#324,#325,#326,#327,#328,#329,#330,#331,#332,#333,
#334,#335,#336,#337,#338,#339,#340,#341,#342,#343,#344));
#346=DERIVED_UNIT_ELEMENT(#348,1.);
#347=DERIVED_UNIT_ELEMENT(#616,-3.);
#348=(
MASS_UNIT()
NAMED_UNIT(*)
SI_UNIT(.KILO.,.GRAM.)
);
#349=DERIVED_UNIT((#346,#347));
#350=MEASURE_REPRESENTATION_ITEM('density measure',
POSITIVE_RATIO_MEASURE(7850.),#349);
#351=PROPERTY_DEFINITION_REPRESENTATION(#356,#353);
#352=PROPERTY_DEFINITION_REPRESENTATION(#357,#354);
#353=REPRESENTATION('material name',(#355),#613);
#354=REPRESENTATION('density',(#350),#613);
#355=DESCRIPTIVE_REPRESENTATION_ITEM('Acier','Acier');
#356=PROPERTY_DEFINITION('material property','material name',#623);
#357=PROPERTY_DEFINITION('material property','density of part',#623);
#358=AXIS2_PLACEMENT_3D('',#519,#406,#407);
#359=AXIS2_PLACEMENT_3D('',#520,#408,#409);
#360=AXIS2_PLACEMENT_3D('',#522,#410,#411);
#361=AXIS2_PLACEMENT_3D('',#525,#413,#414);
#362=AXIS2_PLACEMENT_3D('',#526,#415,#416);
#363=AXIS2_PLACEMENT_3D('',#529,#418,#419);
#364=AXIS2_PLACEMENT_3D('',#530,#420,#421);
#365=AXIS2_PLACEMENT_3D('',#532,#422,#423);
#366=AXIS2_PLACEMENT_3D('',#535,#425,#426);
#367=AXIS2_PLACEMENT_3D('',#536,#427,#428);
#368=AXIS2_PLACEMENT_3D('',#539,#430,#431);
#369=AXIS2_PLACEMENT_3D('',#540,#432,#433);
#370=AXIS2_PLACEMENT_3D('',#542,#434,#435);
#371=AXIS2_PLACEMENT_3D('',#545,#437,#438);
#372=AXIS2_PLACEMENT_3D('',#546,#439,#440);
#373=AXIS2_PLACEMENT_3D('',#549,#442,#443);
#374=AXIS2_PLACEMENT_3D('',#550,#444,#445);
#375=AXIS2_PLACEMENT_3D('',#552,#446,#447);
#376=AXIS2_PLACEMENT_3D('',#555,#449,#450);
#377=AXIS2_PLACEMENT_3D('',#556,#451,#452);
#378=AXIS2_PLACEMENT_3D('',#559,#454,#455);
#379=AXIS2_PLACEMENT_3D('',#560,#456,#457);
#380=AXIS2_PLACEMENT_3D('',#562,#458,#459);
#381=AXIS2_PLACEMENT_3D('',#565,#461,#462);
#382=AXIS2_PLACEMENT_3D('',#566,#463,#464);
#383=AXIS2_PLACEMENT_3D('',#569,#466,#467);
#384=AXIS2_PLACEMENT_3D('',#570,#468,#469);
#385=AXIS2_PLACEMENT_3D('',#572,#470,#471);
#386=AXIS2_PLACEMENT_3D('',#575,#473,#474);
#387=AXIS2_PLACEMENT_3D('',#576,#475,#476);
#388=AXIS2_PLACEMENT_3D('',#579,#478,#479);
#389=AXIS2_PLACEMENT_3D('',#580,#480,#481);
#390=AXIS2_PLACEMENT_3D('',#582,#482,#483);
#391=AXIS2_PLACEMENT_3D('',#585,#485,#486);
#392=AXIS2_PLACEMENT_3D('',#587,#487,#488);
#393=AXIS2_PLACEMENT_3D('',#589,#490,#491);
#394=AXIS2_PLACEMENT_3D('',#591,#492,#493);
#395=AXIS2_PLACEMENT_3D('',#594,#495,#496);
#396=AXIS2_PLACEMENT_3D('',#595,#497,#498);
#397=AXIS2_PLACEMENT_3D('',#597,#499,#500);
#398=AXIS2_PLACEMENT_3D('',#598,#501,#502);
#399=AXIS2_PLACEMENT_3D('',#600,#503,#504);
#400=AXIS2_PLACEMENT_3D('',#601,#505,#506);
#401=AXIS2_PLACEMENT_3D('',#603,#507,#508);
#402=AXIS2_PLACEMENT_3D('',#605,#510,#511);
#403=AXIS2_PLACEMENT_3D('',#606,#512,#513);
#404=AXIS2_PLACEMENT_3D('',#608,#514,#515);
#405=AXIS2_PLACEMENT_3D('',#610,#517,#518);
#406=DIRECTION('axis',(0.,0.,1.));
#407=DIRECTION('refdir',(1.,0.,0.));
#408=DIRECTION('center_axis',(1.,0.,0.));
#409=DIRECTION('ref_axis',(0.,1.,0.));
#410=DIRECTION('center_axis',(-1.,0.,0.));
#411=DIRECTION('ref_axis',(0.,1.,0.));
#412=DIRECTION('',(-0.707106781186547,0.707106781186547,-8.65956056235493E-17));
#413=DIRECTION('center_axis',(-1.,0.,0.));
#414=DIRECTION('ref_axis',(0.,1.,0.));
#415=DIRECTION('center_axis',(-1.,0.,0.));
#416=DIRECTION('ref_axis',(0.,1.,0.));
#417=DIRECTION('',(-1.,0.,0.));
#418=DIRECTION('center_axis',(1.,0.,0.));
#419=DIRECTION('ref_axis',(0.,1.,0.));
#420=DIRECTION('center_axis',(1.,0.,0.));
#421=DIRECTION('ref_axis',(0.,1.,0.));
#422=DIRECTION('center_axis',(-1.,0.,0.));
#423=DIRECTION('ref_axis',(0.,1.,0.));
#424=DIRECTION('',(-0.707106781186547,0.707106781186547,-8.65956056235494E-17));
#425=DIRECTION('center_axis',(-1.,0.,0.));
#426=DIRECTION('ref_axis',(0.,1.,0.));
#427=DIRECTION('center_axis',(-1.,0.,0.));
#428=DIRECTION('ref_axis',(0.,1.,0.));
#429=DIRECTION('',(-1.,0.,0.));
#430=DIRECTION('center_axis',(1.,0.,0.));
#431=DIRECTION('ref_axis',(0.,1.,0.));
#432=DIRECTION('center_axis',(1.,0.,0.));
#433=DIRECTION('ref_axis',(0.,1.,0.));
#434=DIRECTION('center_axis',(-1.,0.,0.));
#435=DIRECTION('ref_axis',(0.,1.,0.));
#436=DIRECTION('',(-0.707106781186547,0.707106781186547,-8.65956056235494E-17));
#437=DIRECTION('center_axis',(-1.,0.,0.));
#438=DIRECTION('ref_axis',(0.,1.,0.));
#439=DIRECTION('center_axis',(-1.,0.,0.));
#440=DIRECTION('ref_axis',(0.,1.,0.));
#441=DIRECTION('',(-1.,0.,0.));
#442=DIRECTION('center_axis',(1.,0.,0.));
#443=DIRECTION('ref_axis',(0.,1.,0.));
#444=DIRECTION('center_axis',(1.,0.,0.));
#445=DIRECTION('ref_axis',(0.,1.,0.));
#446=DIRECTION('center_axis',(-1.,0.,0.));
#447=DIRECTION('ref_axis',(0.,1.,0.));
#448=DIRECTION('',(-0.707106781186547,0.707106781186547,-8.65956056235493E-17));
#449=DIRECTION('center_axis',(-1.,0.,0.));
#450=DIRECTION('ref_axis',(0.,1.,0.));
#451=DIRECTION('center_axis',(-1.,0.,0.));
#452=DIRECTION('ref_axis',(0.,1.,0.));
#453=DIRECTION('',(-1.,0.,0.));
#454=DIRECTION('center_axis',(1.,0.,0.));
#455=DIRECTION('ref_axis',(0.,1.,0.));
#456=DIRECTION('center_axis',(1.,0.,0.));
#457=DIRECTION('ref_axis',(0.,1.,0.));
#458=DIRECTION('center_axis',(-1.,0.,0.));
#459=DIRECTION('ref_axis',(0.,1.,0.));
#460=DIRECTION('',(-0.707106781186547,0.707106781186547,-8.65956056235493E-17));
#461=DIRECTION('center_axis',(-1.,0.,0.));
#462=DIRECTION('ref_axis',(0.,1.,0.));
#463=DIRECTION('center_axis',(-1.,0.,0.));
#464=DIRECTION('ref_axis',(0.,1.,0.));
#465=DIRECTION('',(-1.,0.,0.));
#466=DIRECTION('center_axis',(1.,0.,0.));
#467=DIRECTION('ref_axis',(0.,1.,0.));
#468=DIRECTION('center_axis',(1.,0.,0.));
#469=DIRECTION('ref_axis',(0.,1.,0.));
#470=DIRECTION('center_axis',(-1.,0.,0.));
#471=DIRECTION('ref_axis',(0.,1.,0.));
#472=DIRECTION('',(-0.707106781186547,0.707106781186547,-8.65956056235494E-17));
#473=DIRECTION('center_axis',(-1.,0.,0.));
#474=DIRECTION('ref_axis',(0.,1.,0.));
#475=DIRECTION('center_axis',(-1.,0.,0.));
#476=DIRECTION('ref_axis',(0.,1.,0.));
#477=DIRECTION('',(-1.,0.,0.));
#478=DIRECTION('center_axis',(1.,0.,0.));
#479=DIRECTION('ref_axis',(0.,1.,0.));
#480=DIRECTION('center_axis',(1.,0.,0.));
#481=DIRECTION('ref_axis',(0.,1.,0.));
#482=DIRECTION('center_axis',(-1.,0.,0.));
#483=DIRECTION('ref_axis',(0.,1.,0.));
#484=DIRECTION('',(-0.515038074910054,0.857167300702112,-1.04972719113862E-16));
#485=DIRECTION('center_axis',(-1.,0.,0.));
#486=DIRECTION('ref_axis',(0.,1.,0.));
#487=DIRECTION('center_axis',(-1.,0.,0.));
#488=DIRECTION('ref_axis',(0.,1.,0.));
#489=DIRECTION('',(-1.,0.,0.));
#490=DIRECTION('center_axis',(-1.,0.,0.));
#491=DIRECTION('ref_axis',(0.,0.,-1.));
#492=DIRECTION('center_axis',(1.,0.,0.));
#493=DIRECTION('ref_axis',(0.,0.,-1.));
#494=DIRECTION('',(0.707106781186548,-8.65956056235492E-17,-0.707106781186547));
#495=DIRECTION('center_axis',(-1.,0.,0.));
#496=DIRECTION('ref_axis',(0.,0.,1.));
#497=DIRECTION('center_axis',(1.,0.,0.));
#498=DIRECTION('ref_axis',(0.,0.,-1.));
#499=DIRECTION('center_axis',(-1.,0.,0.));
#500=DIRECTION('ref_axis',(0.,0.,1.));
#501=DIRECTION('center_axis',(1.,0.,0.));
#502=DIRECTION('ref_axis',(0.,0.,-1.));
#503=DIRECTION('center_axis',(-1.,0.,0.));
#504=DIRECTION('ref_axis',(0.,0.,1.));
#505=DIRECTION('center_axis',(-1.,0.,0.));
#506=DIRECTION('ref_axis',(0.,0.,1.));
#507=DIRECTION('center_axis',(-1.,0.,0.));
#508=DIRECTION('ref_axis',(0.,0.,1.));
#509=DIRECTION('',(1.,0.,0.));
#510=DIRECTION('center_axis',(1.,0.,0.));
#511=DIRECTION('ref_axis',(0.,0.,-1.));
#512=DIRECTION('center_axis',(-1.,0.,0.));
#513=DIRECTION('ref_axis',(0.,0.,1.));
#514=DIRECTION('center_axis',(-1.,0.,0.));
#515=DIRECTION('ref_axis',(0.,0.,1.));
#516=DIRECTION('',(1.,0.,0.));
#517=DIRECTION('center_axis',(-1.,0.,0.));
#518=DIRECTION('ref_axis',(0.,0.,1.));
#519=CARTESIAN_POINT('',(0.,0.,0.));
#520=CARTESIAN_POINT('Origin',(2.00875,-11.5000001713633,-19.9185845838521));
#521=CARTESIAN_POINT('',(3.,-16.0000001713633,-19.9185845838521));
#522=CARTESIAN_POINT('Origin',(3.,-11.5000001713633,-19.9185845838521));
#523=CARTESIAN_POINT('',(1.0175,-14.0175001713633,-19.9185845838521));
#524=CARTESIAN_POINT('',(2.00875,-15.0087501713633,-19.9185845838521));
#525=CARTESIAN_POINT('Origin',(1.0175,-11.5000001713633,-19.9185845838521));
#526=CARTESIAN_POINT('Origin',(1.35,-11.5000001713633,-19.9185845838521));
#527=CARTESIAN_POINT('',(0.,-14.0175001713633,-19.9185845838521));
#528=CARTESIAN_POINT('',(1.35,-14.0175001713633,-19.9185845838521));
#529=CARTESIAN_POINT('Origin',(0.,-11.5000001713633,-19.9185845838521));
#530=CARTESIAN_POINT('Origin',(2.00875,11.5000001713634,-19.9185845838521));
#531=CARTESIAN_POINT('',(3.,7.00000017136336,-19.9185845838521));
#532=CARTESIAN_POINT('Origin',(3.,11.5000001713634,-19.9185845838521));
#533=CARTESIAN_POINT('',(1.0175,8.98250017136337,-19.9185845838521));
#534=CARTESIAN_POINT('',(2.00875,7.99125017136336,-19.9185845838521));
#535=CARTESIAN_POINT('Origin',(1.0175,11.5000001713634,-19.9185845838521));
#536=CARTESIAN_POINT('Origin',(1.35,11.5000001713634,-19.9185845838521));
#537=CARTESIAN_POINT('',(0.,8.98250017136336,-19.9185845838521));
#538=CARTESIAN_POINT('',(1.35,8.98250017136336,-19.9185845838521));
#539=CARTESIAN_POINT('Origin',(0.,11.5000001713634,-19.9185845838521));
#540=CARTESIAN_POINT('Origin',(2.00875,23.0000003427267,2.81668768001083E-15));
#541=CARTESIAN_POINT('',(3.,18.5000003427267,3.36777873962714E-15));
#542=CARTESIAN_POINT('Origin',(3.,23.0000003427267,2.81668768001083E-15));
#543=CARTESIAN_POINT('',(1.0175,20.4825003427267,3.12499251169617E-15));
#544=CARTESIAN_POINT('',(2.00875,19.4912503427267,3.24638562566166E-15));
#545=CARTESIAN_POINT('Origin',(1.0175,23.0000003427267,2.81668768001083E-15));
#546=CARTESIAN_POINT('Origin',(1.35,23.0000003427267,2.81668768001083E-15));
#547=CARTESIAN_POINT('',(0.,20.4825003427267,2.50838284832548E-15));
#548=CARTESIAN_POINT('',(1.35,20.4825003427267,3.12499251169618E-15));
#549=CARTESIAN_POINT('Origin',(0.,23.0000003427267,2.81668768001083E-15));
#550=CARTESIAN_POINT('Origin',(2.00875,11.5000001713634,19.9185845838521));
#551=CARTESIAN_POINT('',(3.,7.00000017136335,19.9185845838521));
#552=CARTESIAN_POINT('Origin',(3.,11.5000001713634,19.9185845838521));
#553=CARTESIAN_POINT('',(1.0175,8.98250017136335,19.9185845838521));
#554=CARTESIAN_POINT('',(2.00875,7.99125017136335,19.9185845838521));
#555=CARTESIAN_POINT('Origin',(1.0175,11.5000001713634,19.9185845838521));
#556=CARTESIAN_POINT('Origin',(1.35,11.5000001713634,19.9185845838521));
#557=CARTESIAN_POINT('',(0.,8.98250017136335,19.9185845838521));
#558=CARTESIAN_POINT('',(1.35,8.98250017136335,19.9185845838521));
#559=CARTESIAN_POINT('Origin',(0.,11.5000001713634,19.9185845838521));
#560=CARTESIAN_POINT('Origin',(2.00875,-11.5000001713634,19.9185845838521));
#561=CARTESIAN_POINT('',(3.,-16.0000001713634,19.9185845838521));
#562=CARTESIAN_POINT('Origin',(3.,-11.5000001713634,19.9185845838521));
#563=CARTESIAN_POINT('',(1.0175,-14.0175001713634,19.9185845838521));
#564=CARTESIAN_POINT('',(2.00875,-15.0087501713634,19.9185845838521));
#565=CARTESIAN_POINT('Origin',(1.0175,-11.5000001713634,19.9185845838521));
#566=CARTESIAN_POINT('Origin',(1.35,-11.5000001713634,19.9185845838521));
#567=CARTESIAN_POINT('',(0.,-14.0175001713634,19.9185845838521));
#568=CARTESIAN_POINT('',(1.35,-14.0175001713634,19.9185845838521));
#569=CARTESIAN_POINT('Origin',(0.,-11.5000001713634,19.9185845838521));
#570=CARTESIAN_POINT('Origin',(2.00875,-23.0000003427267,0.));
#571=CARTESIAN_POINT('',(3.,-27.5000003427267,5.51091059616309E-16));
#572=CARTESIAN_POINT('Origin',(3.,-23.0000003427267,0.));
#573=CARTESIAN_POINT('',(1.0175,-25.5175003427267,3.08304831685346E-16));
#574=CARTESIAN_POINT('',(2.00875,-26.5087503427267,4.29697945650828E-16));
#575=CARTESIAN_POINT('Origin',(1.0175,-23.0000003427267,0.));
#576=CARTESIAN_POINT('Origin',(1.35,-23.0000003427267,0.));
#577=CARTESIAN_POINT('',(0.,-25.5175003427267,-3.08304831685346E-16));
#578=CARTESIAN_POINT('',(1.35,-25.5175003427267,3.08304831685346E-16));
#579=CARTESIAN_POINT('Origin',(0.,-23.0000003427267,0.));
#580=CARTESIAN_POINT('Origin',(9.24366669579906,0.,0.));
#581=CARTESIAN_POINT('',(10.,-2.5175,3.08304831685346E-16));
#582=CARTESIAN_POINT('Origin',(10.,0.,0.));
#583=CARTESIAN_POINT('',(8.48733339159812,0.,0.));
#584=CARTESIAN_POINT('',(9.24366669579906,-1.25875,1.54152415842673E-16));
#585=CARTESIAN_POINT('Origin',(14.,0.,0.));
#586=CARTESIAN_POINT('',(18.,-2.5175,3.08304831685346E-16));
#587=CARTESIAN_POINT('Origin',(18.,0.,0.));
#588=CARTESIAN_POINT('',(14.,-2.5175,3.08304831685346E-16));
#589=CARTESIAN_POINT('Origin',(3.5,0.,0.));
#590=CARTESIAN_POINT('',(3.,-1.28587913910472E-15,10.5));
#591=CARTESIAN_POINT('Origin',(3.,0.,0.));
#592=CARTESIAN_POINT('',(4.,0.,9.5));
#593=CARTESIAN_POINT('',(3.5,1.22464679914735E-15,10.));
#594=CARTESIAN_POINT('Origin',(4.,0.,0.));
#595=CARTESIAN_POINT('Origin',(3.,0.,28.));
#596=CARTESIAN_POINT('',(3.,-3.42901103761259E-15,-28.));
#597=CARTESIAN_POINT('Origin',(3.,0.,0.));
#598=CARTESIAN_POINT('Origin',(18.,0.,7.5));
#599=CARTESIAN_POINT('',(18.,-9.18485099360515E-16,-7.5));
#600=CARTESIAN_POINT('Origin',(18.,0.,0.));
#601=CARTESIAN_POINT('Origin',(11.,0.,0.));
#602=CARTESIAN_POINT('',(4.,-9.18485099360515E-16,-7.5));
#603=CARTESIAN_POINT('Origin',(4.,0.,0.));
#604=CARTESIAN_POINT('',(11.,-9.18485099360515E-16,-7.5));
#605=CARTESIAN_POINT('Origin',(4.,0.,9.5));
#606=CARTESIAN_POINT('Origin',(1.5,0.,0.));
#607=CARTESIAN_POINT('',(0.,-3.42901103761259E-15,-28.));
#608=CARTESIAN_POINT('Origin',(0.,0.,0.));
#609=CARTESIAN_POINT('',(1.5,-3.42901103761259E-15,-28.));
#610=CARTESIAN_POINT('Origin',(0.,0.,0.));
#611=UNCERTAINTY_MEASURE_WITH_UNIT(LENGTH_MEASURE(0.01),#615,
'DISTANCE_ACCURACY_VALUE',
'Maximum model space distance between geometric entities at asserted c
onnectivities');
#612=UNCERTAINTY_MEASURE_WITH_UNIT(LENGTH_MEASURE(0.01),#615,
'DISTANCE_ACCURACY_VALUE',
'Maximum model space distance between geometric entities at asserted c
onnectivities');
#613=(
GEOMETRIC_REPRESENTATION_CONTEXT(3)
GLOBAL_UNCERTAINTY_ASSIGNED_CONTEXT((#611))
GLOBAL_UNIT_ASSIGNED_CONTEXT((#615,#617,#618))
REPRESENTATION_CONTEXT('','3D')
);
#614=(
GEOMETRIC_REPRESENTATION_CONTEXT(3)
GLOBAL_UNCERTAINTY_ASSIGNED_CONTEXT((#612))
GLOBAL_UNIT_ASSIGNED_CONTEXT((#615,#617,#618))
REPRESENTATION_CONTEXT('','3D')
);
#615=(
LENGTH_UNIT()
NAMED_UNIT(*)
SI_UNIT(.MILLI.,.METRE.)
);
#616=(
LENGTH_UNIT()
NAMED_UNIT(*)
SI_UNIT($,.METRE.)
);
#617=(
NAMED_UNIT(*)
PLANE_ANGLE_UNIT()
SI_UNIT($,.RADIAN.)
);
#618=(
NAMED_UNIT(*)
SI_UNIT($,.STERADIAN.)
SOLID_ANGLE_UNIT()
);
#619=SHAPE_DEFINITION_REPRESENTATION(#620,#621);
#620=PRODUCT_DEFINITION_SHAPE('',$,#623);
#621=SHAPE_REPRESENTATION('',(#358),#613);
#622=PRODUCT_DEFINITION_CONTEXT('part definition',#627,'design');
#623=PRODUCT_DEFINITION('pivot','pivot v6',#624,#622);
#624=PRODUCT_DEFINITION_FORMATION('',$,#629);
#625=PRODUCT_RELATED_PRODUCT_CATEGORY('pivot v6','pivot v6',(#629));
#626=APPLICATION_PROTOCOL_DEFINITION('international standard',
'automotive_design',2009,#627);
#627=APPLICATION_CONTEXT(
'Core Data for Automotive Mechanical Design Process');
#628=PRODUCT_CONTEXT('part definition',#627,'mechanical');
#629=PRODUCT('pivot','pivot v6',$,(#628));
#630=PRESENTATION_STYLE_ASSIGNMENT((#631));
#631=SURFACE_STYLE_USAGE(.BOTH.,#632);
#632=SURFACE_SIDE_STYLE('',(#633));
#633=SURFACE_STYLE_FILL_AREA(#634);
#634=FILL_AREA_STYLE('Acier - Satin\X\E9',(#635));
#635=FILL_AREA_STYLE_COLOUR('Acier - Satin\X\E9',#636);
#636=COLOUR_RGB('Acier - Satin\X\E9',0.627450980392157,0.627450980392157,
0.627450980392157);
ENDSEC;
END-ISO-10303-21;
