ISO-10303-21;
HEADER;
FILE_DESCRIPTION(('CATIA V5 STEP Exchange'),'2;1');

FILE_NAME('D:\\Users\\s057700\\Desktop\\DEMANDE perso\\DEMANDE.stp','2015-12-09T08:15:02+00:00',('none'),('SNECMA'),'CATIA Version 5 Release 19 SP 9 (IN-10)','CATIA V5 STEP AP214','none');

FILE_SCHEMA(('AUTOMOTIVE_DESIGN { 1 0 10303 214 1 1 1 1 }'));

ENDSEC;
/* file written by CATIA V5R19 */
DATA;
#5=PRODUCT('PART6','','',(#2)) ;
#2=PRODUCT_CONTEXT(' ',#1,'mechanical') ;
#1=APPLICATION_CONTEXT('automotive design') ;
#10=PRODUCT_DEFINITION('',' ',#6,#3) ;
#3=PRODUCT_DEFINITION_CONTEXT('part definition',#1,' ') ;
#11=PRODUCT_DEFINITION_SHAPE(' ',' ',#10) ;
#502=MECHANICAL_DESIGN_GEOMETRIC_PRESENTATION_REPRESENTATION(' ',(#30),#17) ;
#20=SHAPE_REPRESENTATION(' ',(#19),#17) ;
#19=AXIS2_PLACEMENT_3D(' ',#18,$,$) ;
#35=AXIS2_PLACEMENT_3D('Sphere Axis2P3D',#32,#33,#34) ;
#39=AXIS2_PLACEMENT_3D('Circle Axis2P3D',#37,#38,$) ;
#48=AXIS2_PLACEMENT_3D('Circle Axis2P3D',#46,#47,$) ;
#55=AXIS2_PLACEMENT_3D('Circle Axis2P3D',#53,#54,$) ;
#66=AXIS2_PLACEMENT_3D('Circle Axis2P3D',#64,#65,$) ;
#78=AXIS2_PLACEMENT_3D('Cone Axis2P3D',#75,#76,#77) ;
#89=AXIS2_PLACEMENT_3D('Circle Axis2P3D',#87,#88,$) ;
#108=AXIS2_PLACEMENT_3D('Circle Axis2P3D',#106,#107,$) ;
#121=AXIS2_PLACEMENT_3D('Torus Axis2P3D',#118,#119,#120) ;
#125=AXIS2_PLACEMENT_3D('Circle Axis2P3D',#123,#124,$) ;
#132=AXIS2_PLACEMENT_3D('Circle Axis2P3D',#130,#131,$) ;
#139=AXIS2_PLACEMENT_3D('Circle Axis2P3D',#137,#138,$) ;
#151=AXIS2_PLACEMENT_3D('Circle Axis2P3D',#149,#150,$) ;
#164=AXIS2_PLACEMENT_3D('Cone Axis2P3D',#161,#162,#163) ;
#175=AXIS2_PLACEMENT_3D('Circle Axis2P3D',#173,#174,$) ;
#194=AXIS2_PLACEMENT_3D('Circle Axis2P3D',#192,#193,$) ;
#207=AXIS2_PLACEMENT_3D('Torus Axis2P3D',#204,#205,#206) ;
#211=AXIS2_PLACEMENT_3D('Circle Axis2P3D',#209,#210,$) ;
#218=AXIS2_PLACEMENT_3D('Circle Axis2P3D',#216,#217,$) ;
#225=AXIS2_PLACEMENT_3D('Circle Axis2P3D',#223,#224,$) ;
#237=AXIS2_PLACEMENT_3D('Circle Axis2P3D',#235,#236,$) ;
#250=AXIS2_PLACEMENT_3D('Cylinder Axis2P3D',#247,#248,#249) ;
#261=AXIS2_PLACEMENT_3D('Circle Axis2P3D',#259,#260,$) ;
#280=AXIS2_PLACEMENT_3D('Circle Axis2P3D',#278,#279,$) ;
#293=AXIS2_PLACEMENT_3D('Torus Axis2P3D',#290,#291,#292) ;
#297=AXIS2_PLACEMENT_3D('Circle Axis2P3D',#295,#296,$) ;
#304=AXIS2_PLACEMENT_3D('Circle Axis2P3D',#302,#303,$) ;
#311=AXIS2_PLACEMENT_3D('Circle Axis2P3D',#309,#310,$) ;
#323=AXIS2_PLACEMENT_3D('Circle Axis2P3D',#321,#322,$) ;
#336=AXIS2_PLACEMENT_3D('Torus Axis2P3D',#333,#334,#335) ;
#340=AXIS2_PLACEMENT_3D('Circle Axis2P3D',#338,#339,$) ;
#349=AXIS2_PLACEMENT_3D('Circle Axis2P3D',#347,#348,$) ;
#356=AXIS2_PLACEMENT_3D('Circle Axis2P3D',#354,#355,$) ;
#363=AXIS2_PLACEMENT_3D('Circle Axis2P3D',#361,#362,$) ;
#375=AXIS2_PLACEMENT_3D('Circle Axis2P3D',#373,#374,$) ;
#380=AXIS2_PLACEMENT_3D('Circle Axis2P3D',#378,#379,$) ;
#393=AXIS2_PLACEMENT_3D('Cylinder Axis2P3D',#390,#391,#392) ;
#404=AXIS2_PLACEMENT_3D('Circle Axis2P3D',#402,#403,$) ;
#423=AXIS2_PLACEMENT_3D('Circle Axis2P3D',#421,#422,$) ;
#436=AXIS2_PLACEMENT_3D('Torus Axis2P3D',#433,#434,#435) ;
#440=AXIS2_PLACEMENT_3D('Circle Axis2P3D',#438,#439,$) ;
#447=AXIS2_PLACEMENT_3D('Circle Axis2P3D',#445,#446,$) ;
#454=AXIS2_PLACEMENT_3D('Circle Axis2P3D',#452,#453,$) ;
#466=AXIS2_PLACEMENT_3D('Circle Axis2P3D',#464,#465,$) ;
#479=AXIS2_PLACEMENT_3D('Plane Axis2P3D',#476,#477,#478) ;
#493=AXIS2_PLACEMENT_3D('Plane Axis2P3D',#490,#491,#492) ;
#18=CARTESIAN_POINT(' ',(0.,0.,0.)) ;
#32=CARTESIAN_POINT('Axis2P3D Location',(0.,130.343009736,0.)) ;
#37=CARTESIAN_POINT('Axis2P3D Location',(0.,130.343009736,0.)) ;
#41=CARTESIAN_POINT('Vertex',(2.54137615051E-016,139.,4.65195783976E-016)) ;
#43=CARTESIAN_POINT('Vertex',(4.09322243385,131.774810899,7.4925934074)) ;
#46=CARTESIAN_POINT('Axis2P3D Location',(0.,131.774810899,0.)) ;
#50=CARTESIAN_POINT('Vertex',(-4.09322243385,131.774810899,-7.4925934074)) ;
#53=CARTESIAN_POINT('Axis2P3D Location',(0.,130.343009736,0.)) ;
#64=CARTESIAN_POINT('Axis2P3D Location',(0.,131.774810899,0.)) ;
#75=CARTESIAN_POINT('Axis2P3D Location',(0.,131.774810899,0.)) ;
#80=CARTESIAN_POINT('Line Origine',(6.80415268515,98.0570560244,12.4549179468)) ;
#84=CARTESIAN_POINT('Vertex',(9.51508293645,64.3393011496,17.4172424862)) ;
#87=CARTESIAN_POINT('Axis2P3D Location',(0.,64.3393011496,0.)) ;
#91=CARTESIAN_POINT('Vertex',(-9.51508293645,64.3393011496,-17.4172424862)) ;
#94=CARTESIAN_POINT('Line Origine',(-6.80415268515,98.0570560244,-12.4549179468)) ;
#106=CARTESIAN_POINT('Axis2P3D Location',(0.,64.3393011496,0.)) ;
#118=CARTESIAN_POINT('Axis2P3D Location',(0.,62.5,0.)) ;
#123=CARTESIAN_POINT('Axis2P3D Location',(4.25690259576,62.5,7.79220793407)) ;
#127=CARTESIAN_POINT('Vertex',(8.34115141212,55.3516705943,15.2683752448)) ;
#130=CARTESIAN_POINT('Axis2P3D Location',(0.,55.3516705943,0.)) ;
#134=CARTESIAN_POINT('Vertex',(-8.34115141212,55.3516705943,-15.2683752448)) ;
#137=CARTESIAN_POINT('Axis2P3D Location',(-4.25690259576,62.5,-7.79220793407)) ;
#149=CARTESIAN_POINT('Axis2P3D Location',(0.,55.3516705943,0.)) ;
#161=CARTESIAN_POINT('Axis2P3D Location',(0.,47.1418141453,0.)) ;
#166=CARTESIAN_POINT('Line Origine',(6.68979710768,51.2467423698,12.2455914664)) ;
#170=CARTESIAN_POINT('Vertex',(5.03844280324,47.1418141453,9.22280768787)) ;
#173=CARTESIAN_POINT('Axis2P3D Location',(0.,47.1418141453,0.)) ;
#177=CARTESIAN_POINT('Vertex',(-5.03844280324,47.1418141453,-9.22280768787)) ;
#180=CARTESIAN_POINT('Line Origine',(-6.68979710768,51.2467423698,-12.2455914664)) ;
#192=CARTESIAN_POINT('Axis2P3D Location',(0.,47.1418141453,0.)) ;
#204=CARTESIAN_POINT('Axis2P3D Location',(0.,37.5,0.)) ;
#209=CARTESIAN_POINT('Axis2P3D Location',(10.5473618493,37.5,19.3068163616)) ;
#213=CARTESIAN_POINT('Vertex',(3.35597877023,37.5,6.14307793323)) ;
#216=CARTESIAN_POINT('Axis2P3D Location',(0.,37.5,0.)) ;
#220=CARTESIAN_POINT('Vertex',(-3.35597877023,37.5,-6.14307793323)) ;
#223=CARTESIAN_POINT('Axis2P3D Location',(-10.5473618493,37.5,-19.3068163616)) ;
#235=CARTESIAN_POINT('Axis2P3D Location',(0.,37.5,0.)) ;
#247=CARTESIAN_POINT('Axis2P3D Location',(0.,69.5,0.)) ;
#252=CARTESIAN_POINT('Line Origine',(3.35597877023,27.5,6.14307793323)) ;
#256=CARTESIAN_POINT('Vertex',(3.35597877023,17.5,6.14307793323)) ;
#259=CARTESIAN_POINT('Axis2P3D Location',(0.,17.5,0.)) ;
#263=CARTESIAN_POINT('Vertex',(-3.35597877023,17.5,-6.14307793323)) ;
#266=CARTESIAN_POINT('Line Origine',(-3.35597877023,27.5,-6.14307793323)) ;
#278=CARTESIAN_POINT('Axis2P3D Location',(0.,17.5,0.)) ;
#290=CARTESIAN_POINT('Axis2P3D Location',(0.,17.5,0.)) ;
#295=CARTESIAN_POINT('Axis2P3D Location',(5.75310646325,17.5,10.5309907427)) ;
#299=CARTESIAN_POINT('Vertex',(5.75310646325,12.5,10.5309907427)) ;
#302=CARTESIAN_POINT('Axis2P3D Location',(0.,12.5,0.)) ;
#306=CARTESIAN_POINT('Vertex',(-5.75310646325,12.5,-10.5309907427)) ;
#309=CARTESIAN_POINT('Axis2P3D Location',(-5.75310646325,17.5,-10.5309907427)) ;
#321=CARTESIAN_POINT('Axis2P3D Location',(0.,12.5,0.)) ;
#333=CARTESIAN_POINT('Axis2P3D Location',(0.,9.5,0.)) ;
#338=CARTESIAN_POINT('Axis2P3D Location',(0.,12.5,0.)) ;
#342=CARTESIAN_POINT('Vertex',(12.704776773,12.5,23.2559378901)) ;
#344=CARTESIAN_POINT('Vertex',(-12.704776773,12.5,-23.2559378901)) ;
#347=CARTESIAN_POINT('Axis2P3D Location',(12.704776773,9.5,23.2559378901)) ;
#351=CARTESIAN_POINT('Vertex',(14.1430533888,9.5,25.8886855758)) ;
#354=CARTESIAN_POINT('Axis2P3D Location',(0.,9.5,0.)) ;
#358=CARTESIAN_POINT('Vertex',(-14.1430533888,9.5,-25.8886855758)) ;
#361=CARTESIAN_POINT('Axis2P3D Location',(-12.704776773,9.5,-23.2559378901)) ;
#373=CARTESIAN_POINT('Axis2P3D Location',(0.,12.5,0.)) ;
#378=CARTESIAN_POINT('Axis2P3D Location',(0.,9.5,0.)) ;
#390=CARTESIAN_POINT('Axis2P3D Location',(0.,69.5,0.)) ;
#395=CARTESIAN_POINT('Line Origine',(14.1430533888,6.25,25.8886855758)) ;
#399=CARTESIAN_POINT('Vertex',(14.1430533888,3.,25.8886855758)) ;
#402=CARTESIAN_POINT('Axis2P3D Location',(0.,3.,0.)) ;
#406=CARTESIAN_POINT('Vertex',(-14.1430533888,3.,-25.8886855758)) ;
#409=CARTESIAN_POINT('Line Origine',(-14.1430533888,6.25,-25.8886855758)) ;
#421=CARTESIAN_POINT('Axis2P3D Location',(0.,3.,0.)) ;
#433=CARTESIAN_POINT('Axis2P3D Location',(0.,3.,0.)) ;
#438=CARTESIAN_POINT('Axis2P3D Location',(12.704776773,3.,23.2559378901)) ;
#442=CARTESIAN_POINT('Vertex',(12.704776773,0.,23.2559378901)) ;
#445=CARTESIAN_POINT('Axis2P3D Location',(0.,0.,0.)) ;
#449=CARTESIAN_POINT('Vertex',(-12.704776773,0.,-23.2559378901)) ;
#452=CARTESIAN_POINT('Axis2P3D Location',(-12.704776773,3.,-23.2559378901)) ;
#464=CARTESIAN_POINT('Axis2P3D Location',(0.,0.,0.)) ;
#476=CARTESIAN_POINT('Axis2P3D Location',(0.,12.5,26.5)) ;
#490=CARTESIAN_POINT('Axis2P3D Location',(0.,0.,0.)) ;
#33=DIRECTION('Axis2P3D Direction',(0.,1.,0.)) ;
#34=DIRECTION('Axis2P3D XDirection',(0.479425538604,0.,0.87758256189)) ;
#38=DIRECTION('Axis2P3D Direction',(-0.87758256189,0.,0.479425538604)) ;
#47=DIRECTION('Axis2P3D Direction',(0.,1.,0.)) ;
#54=DIRECTION('Axis2P3D Direction',(0.87758256189,0.,-0.479425538604)) ;
#65=DIRECTION('Axis2P3D Direction',(0.,1.,0.)) ;
#76=DIRECTION('Axis2P3D Direction',(-0.,-1.,-0.)) ;
#77=DIRECTION('Axis2P3D XDirection',(0.479425538604,0.,0.87758256189)) ;
#81=DIRECTION('Vector Direction',(0.0792933829088,-0.986227825975,0.145145563828)) ;
#88=DIRECTION('Axis2P3D Direction',(0.,-1.,-0.)) ;
#95=DIRECTION('Vector Direction',(-0.0792933829088,-0.986227825975,-0.145145563828)) ;
#107=DIRECTION('Axis2P3D Direction',(0.,-1.,-0.)) ;
#119=DIRECTION('Axis2P3D Direction',(0.,1.,0.)) ;
#120=DIRECTION('Axis2P3D XDirection',(0.479425538604,0.,0.87758256189)) ;
#124=DIRECTION('Axis2P3D Direction',(-0.87758256189,0.,0.479425538604)) ;
#131=DIRECTION('Axis2P3D Direction',(0.,1.,0.)) ;
#138=DIRECTION('Axis2P3D Direction',(0.87758256189,0.,-0.479425538604)) ;
#150=DIRECTION('Axis2P3D Direction',(0.,1.,0.)) ;
#162=DIRECTION('Axis2P3D Direction',(0.,1.,0.)) ;
#163=DIRECTION('Axis2P3D XDirection',(0.479425538604,0.,0.87758256189)) ;
#167=DIRECTION('Vector Direction',(0.308168795982,0.766044443119,0.56409919726)) ;
#174=DIRECTION('Axis2P3D Direction',(0.,1.,0.)) ;
#181=DIRECTION('Vector Direction',(-0.308168795982,0.766044443119,-0.56409919726)) ;
#193=DIRECTION('Axis2P3D Direction',(0.,1.,0.)) ;
#205=DIRECTION('Axis2P3D Direction',(0.,1.,0.)) ;
#206=DIRECTION('Axis2P3D XDirection',(0.479425538604,0.,0.87758256189)) ;
#210=DIRECTION('Axis2P3D Direction',(-0.87758256189,0.,0.479425538604)) ;
#217=DIRECTION('Axis2P3D Direction',(0.,1.,0.)) ;
#224=DIRECTION('Axis2P3D Direction',(0.87758256189,0.,-0.479425538604)) ;
#236=DIRECTION('Axis2P3D Direction',(0.,1.,0.)) ;
#248=DIRECTION('Axis2P3D Direction',(0.,1.,0.)) ;
#249=DIRECTION('Axis2P3D XDirection',(0.479425538604,-0.,0.87758256189)) ;
#253=DIRECTION('Vector Direction',(0.,1.,0.)) ;
#260=DIRECTION('Axis2P3D Direction',(0.,1.,0.)) ;
#267=DIRECTION('Vector Direction',(0.,1.,0.)) ;
#279=DIRECTION('Axis2P3D Direction',(0.,1.,0.)) ;
#291=DIRECTION('Axis2P3D Direction',(0.,1.,0.)) ;
#292=DIRECTION('Axis2P3D XDirection',(0.479425538604,0.,0.87758256189)) ;
#296=DIRECTION('Axis2P3D Direction',(-0.87758256189,0.,0.479425538604)) ;
#303=DIRECTION('Axis2P3D Direction',(0.,1.,0.)) ;
#310=DIRECTION('Axis2P3D Direction',(0.87758256189,0.,-0.479425538604)) ;
#322=DIRECTION('Axis2P3D Direction',(0.,1.,0.)) ;
#334=DIRECTION('Axis2P3D Direction',(0.,1.,0.)) ;
#335=DIRECTION('Axis2P3D XDirection',(0.479425538604,0.,0.87758256189)) ;
#339=DIRECTION('Axis2P3D Direction',(0.,1.,0.)) ;
#348=DIRECTION('Axis2P3D Direction',(-0.87758256189,0.,0.479425538604)) ;
#355=DIRECTION('Axis2P3D Direction',(0.,1.,0.)) ;
#362=DIRECTION('Axis2P3D Direction',(0.87758256189,0.,-0.479425538604)) ;
#374=DIRECTION('Axis2P3D Direction',(0.,1.,0.)) ;
#379=DIRECTION('Axis2P3D Direction',(0.,1.,0.)) ;
#391=DIRECTION('Axis2P3D Direction',(0.,1.,0.)) ;
#392=DIRECTION('Axis2P3D XDirection',(0.479425538604,-0.,0.87758256189)) ;
#396=DIRECTION('Vector Direction',(0.,1.,0.)) ;
#403=DIRECTION('Axis2P3D Direction',(0.,1.,0.)) ;
#410=DIRECTION('Vector Direction',(0.,1.,0.)) ;
#422=DIRECTION('Axis2P3D Direction',(0.,1.,0.)) ;
#434=DIRECTION('Axis2P3D Direction',(0.,1.,0.)) ;
#435=DIRECTION('Axis2P3D XDirection',(0.479425538604,0.,0.87758256189)) ;
#439=DIRECTION('Axis2P3D Direction',(-0.87758256189,0.,0.479425538604)) ;
#446=DIRECTION('Axis2P3D Direction',(0.,1.,0.)) ;
#453=DIRECTION('Axis2P3D Direction',(0.87758256189,0.,-0.479425538604)) ;
#465=DIRECTION('Axis2P3D Direction',(0.,1.,0.)) ;
#477=DIRECTION('Axis2P3D Direction',(-0.,1.,0.)) ;
#478=DIRECTION('Axis2P3D XDirection',(1.,0.,0.)) ;
#491=DIRECTION('Axis2P3D Direction',(-0.,1.,0.)) ;
#492=DIRECTION('Axis2P3D XDirection',(1.,0.,0.)) ;
#8=PRODUCT_RELATED_PRODUCT_CATEGORY('part',$,(#5)) ;
#7=PRODUCT_CATEGORY('part','specification') ;
#30=STYLED_ITEM(' ',(#29),#22) ;
#29=PRESENTATION_STYLE_ASSIGNMENT((#28)) ;
#28=SURFACE_STYLE_USAGE(.BOTH.,#27) ;
#27=SURFACE_SIDE_STYLE(' ',(#26)) ;
#26=SURFACE_STYLE_FILL_AREA(#25) ;
#25=FILL_AREA_STYLE(' ',(#24)) ;
#24=FILL_AREA_STYLE_COLOUR(' ',#23) ;
#82=VECTOR('Line Direction',#81,1.) ;
#96=VECTOR('Line Direction',#95,1.) ;
#168=VECTOR('Line Direction',#167,1.) ;
#182=VECTOR('Line Direction',#181,1.) ;
#254=VECTOR('Line Direction',#253,1.) ;
#268=VECTOR('Line Direction',#267,1.) ;
#397=VECTOR('Line Direction',#396,1.) ;
#411=VECTOR('Line Direction',#410,1.) ;
#16=UNCERTAINTY_MEASURE_WITH_UNIT(LENGTH_MEASURE(0.005),#12,'distance_accuracy_value','CONFUSED CURVE UNCERTAINTY') ;
#501=SHAPE_REPRESENTATION_RELATIONSHIP(' ',' ',#20,#500) ;
#59=ORIENTED_EDGE('',*,*,#45,.T.) ;
#60=ORIENTED_EDGE('',*,*,#52,.T.) ;
#61=ORIENTED_EDGE('',*,*,#57,.F.) ;
#70=ORIENTED_EDGE('',*,*,#57,.T.) ;
#71=ORIENTED_EDGE('',*,*,#68,.T.) ;
#72=ORIENTED_EDGE('',*,*,#45,.F.) ;
#100=ORIENTED_EDGE('',*,*,#52,.F.) ;
#101=ORIENTED_EDGE('',*,*,#86,.T.) ;
#102=ORIENTED_EDGE('',*,*,#93,.T.) ;
#103=ORIENTED_EDGE('',*,*,#98,.F.) ;
#112=ORIENTED_EDGE('',*,*,#68,.F.) ;
#113=ORIENTED_EDGE('',*,*,#98,.T.) ;
#114=ORIENTED_EDGE('',*,*,#110,.T.) ;
#115=ORIENTED_EDGE('',*,*,#86,.F.) ;
#143=ORIENTED_EDGE('',*,*,#93,.F.) ;
#144=ORIENTED_EDGE('',*,*,#129,.T.) ;
#145=ORIENTED_EDGE('',*,*,#136,.T.) ;
#146=ORIENTED_EDGE('',*,*,#141,.F.) ;
#155=ORIENTED_EDGE('',*,*,#110,.F.) ;
#156=ORIENTED_EDGE('',*,*,#141,.T.) ;
#157=ORIENTED_EDGE('',*,*,#153,.T.) ;
#158=ORIENTED_EDGE('',*,*,#129,.F.) ;
#186=ORIENTED_EDGE('',*,*,#136,.F.) ;
#187=ORIENTED_EDGE('',*,*,#172,.T.) ;
#188=ORIENTED_EDGE('',*,*,#179,.T.) ;
#189=ORIENTED_EDGE('',*,*,#184,.F.) ;
#198=ORIENTED_EDGE('',*,*,#153,.F.) ;
#199=ORIENTED_EDGE('',*,*,#184,.T.) ;
#200=ORIENTED_EDGE('',*,*,#196,.T.) ;
#201=ORIENTED_EDGE('',*,*,#172,.F.) ;
#229=ORIENTED_EDGE('',*,*,#179,.F.) ;
#230=ORIENTED_EDGE('',*,*,#215,.T.) ;
#231=ORIENTED_EDGE('',*,*,#222,.T.) ;
#232=ORIENTED_EDGE('',*,*,#227,.F.) ;
#241=ORIENTED_EDGE('',*,*,#196,.F.) ;
#242=ORIENTED_EDGE('',*,*,#227,.T.) ;
#243=ORIENTED_EDGE('',*,*,#239,.T.) ;
#244=ORIENTED_EDGE('',*,*,#215,.F.) ;
#272=ORIENTED_EDGE('',*,*,#222,.F.) ;
#273=ORIENTED_EDGE('',*,*,#258,.T.) ;
#274=ORIENTED_EDGE('',*,*,#265,.T.) ;
#275=ORIENTED_EDGE('',*,*,#270,.F.) ;
#284=ORIENTED_EDGE('',*,*,#239,.F.) ;
#285=ORIENTED_EDGE('',*,*,#270,.T.) ;
#286=ORIENTED_EDGE('',*,*,#282,.T.) ;
#287=ORIENTED_EDGE('',*,*,#258,.F.) ;
#315=ORIENTED_EDGE('',*,*,#265,.F.) ;
#316=ORIENTED_EDGE('',*,*,#301,.T.) ;
#317=ORIENTED_EDGE('',*,*,#308,.T.) ;
#318=ORIENTED_EDGE('',*,*,#313,.F.) ;
#327=ORIENTED_EDGE('',*,*,#282,.F.) ;
#328=ORIENTED_EDGE('',*,*,#313,.T.) ;
#329=ORIENTED_EDGE('',*,*,#325,.T.) ;
#330=ORIENTED_EDGE('',*,*,#301,.F.) ;
#367=ORIENTED_EDGE('',*,*,#346,.F.) ;
#368=ORIENTED_EDGE('',*,*,#353,.T.) ;
#369=ORIENTED_EDGE('',*,*,#360,.T.) ;
#370=ORIENTED_EDGE('',*,*,#365,.F.) ;
#384=ORIENTED_EDGE('',*,*,#377,.F.) ;
#385=ORIENTED_EDGE('',*,*,#365,.T.) ;
#386=ORIENTED_EDGE('',*,*,#382,.T.) ;
#387=ORIENTED_EDGE('',*,*,#353,.F.) ;
#415=ORIENTED_EDGE('',*,*,#360,.F.) ;
#416=ORIENTED_EDGE('',*,*,#401,.T.) ;
#417=ORIENTED_EDGE('',*,*,#408,.T.) ;
#418=ORIENTED_EDGE('',*,*,#413,.F.) ;
#427=ORIENTED_EDGE('',*,*,#382,.F.) ;
#428=ORIENTED_EDGE('',*,*,#413,.T.) ;
#429=ORIENTED_EDGE('',*,*,#425,.T.) ;
#430=ORIENTED_EDGE('',*,*,#401,.F.) ;
#458=ORIENTED_EDGE('',*,*,#408,.F.) ;
#459=ORIENTED_EDGE('',*,*,#444,.T.) ;
#460=ORIENTED_EDGE('',*,*,#451,.T.) ;
#461=ORIENTED_EDGE('',*,*,#456,.F.) ;
#470=ORIENTED_EDGE('',*,*,#425,.F.) ;
#471=ORIENTED_EDGE('',*,*,#456,.T.) ;
#472=ORIENTED_EDGE('',*,*,#468,.T.) ;
#473=ORIENTED_EDGE('',*,*,#444,.F.) ;
#482=ORIENTED_EDGE('',*,*,#377,.T.) ;
#483=ORIENTED_EDGE('',*,*,#346,.T.) ;
#486=ORIENTED_EDGE('',*,*,#308,.F.) ;
#487=ORIENTED_EDGE('',*,*,#325,.F.) ;
#496=ORIENTED_EDGE('',*,*,#451,.F.) ;
#497=ORIENTED_EDGE('',*,*,#468,.F.) ;
#488=FACE_BOUND('',#485,.T.) ;
#31=CLOSED_SHELL('Closed Shell',(#63,#74,#105,#117,#148,#160,#191,#203,#234,#246,#277,#289,#320,#332,#372,#389,#420,#432,#463,#475,#489,#499)) ;
#500=ADVANCED_BREP_SHAPE_REPRESENTATION('NONE',(#22),#17) ;
#63=ADVANCED_FACE('Corps principal',(#62),#36,.T.) ;
#74=ADVANCED_FACE('Corps principal',(#73),#36,.T.) ;
#105=ADVANCED_FACE('Corps principal',(#104),#79,.T.) ;
#117=ADVANCED_FACE('Corps principal',(#116),#79,.T.) ;
#148=ADVANCED_FACE('Corps principal',(#147),#122,.T.) ;
#160=ADVANCED_FACE('Corps principal',(#159),#122,.T.) ;
#191=ADVANCED_FACE('Corps principal',(#190),#165,.T.) ;
#203=ADVANCED_FACE('Corps principal',(#202),#165,.T.) ;
#234=ADVANCED_FACE('Corps principal',(#233),#208,.F.) ;
#246=ADVANCED_FACE('Corps principal',(#245),#208,.F.) ;
#277=ADVANCED_FACE('Corps principal',(#276),#251,.T.) ;
#289=ADVANCED_FACE('Corps principal',(#288),#251,.T.) ;
#320=ADVANCED_FACE('Corps principal',(#319),#294,.F.) ;
#332=ADVANCED_FACE('Corps principal',(#331),#294,.F.) ;
#372=ADVANCED_FACE('Corps principal',(#371),#337,.T.) ;
#389=ADVANCED_FACE('Corps principal',(#388),#337,.T.) ;
#420=ADVANCED_FACE('Corps principal',(#419),#394,.T.) ;
#432=ADVANCED_FACE('Corps principal',(#431),#394,.T.) ;
#463=ADVANCED_FACE('Corps principal',(#462),#437,.T.) ;
#475=ADVANCED_FACE('Corps principal',(#474),#437,.T.) ;
#489=ADVANCED_FACE('Corps principal',(#484,#488),#480,.T.) ;
#499=ADVANCED_FACE('Corps principal',(#498),#494,.F.) ;
#4=APPLICATION_PROTOCOL_DEFINITION('international standard','automotive_design',2001,#1) ;
#22=MANIFOLD_SOLID_BREP('Corps principal',#31) ;
#40=CIRCLE('generated circle',#39,8.65699026409) ;
#49=CIRCLE('generated circle',#48,8.53776468764) ;
#56=CIRCLE('generated circle',#55,8.65699026409) ;
#67=CIRCLE('generated circle',#66,8.53776468764) ;
#90=CIRCLE('generated circle',#89,19.8468420438) ;
#109=CIRCLE('generated circle',#108,19.8468420438) ;
#126=CIRCLE('generated circle',#125,11.1208263787) ;
#133=CIRCLE('generated circle',#132,17.3982208716) ;
#140=CIRCLE('generated circle',#139,11.1208263787) ;
#152=CIRCLE('generated circle',#151,17.3982208716) ;
#176=CIRCLE('generated circle',#175,10.5093333532) ;
#195=CIRCLE('generated circle',#194,10.5093333532) ;
#212=CIRCLE('generated circle',#211,15.) ;
#219=CIRCLE('generated circle',#218,7.) ;
#226=CIRCLE('generated circle',#225,15.) ;
#238=CIRCLE('generated circle',#237,7.) ;
#262=CIRCLE('generated circle',#261,7.) ;
#281=CIRCLE('generated circle',#280,7.) ;
#298=CIRCLE('generated circle',#297,5.) ;
#305=CIRCLE('generated circle',#304,12.) ;
#312=CIRCLE('generated circle',#311,5.) ;
#324=CIRCLE('generated circle',#323,12.) ;
#341=CIRCLE('generated circle',#340,26.5) ;
#350=CIRCLE('generated circle',#349,3.) ;
#357=CIRCLE('generated circle',#356,29.5) ;
#364=CIRCLE('generated circle',#363,3.) ;
#376=CIRCLE('generated circle',#375,26.5) ;
#381=CIRCLE('generated circle',#380,29.5) ;
#405=CIRCLE('generated circle',#404,29.5) ;
#424=CIRCLE('generated circle',#423,29.5) ;
#441=CIRCLE('generated circle',#440,3.) ;
#448=CIRCLE('generated circle',#447,26.5) ;
#455=CIRCLE('generated circle',#454,3.) ;
#467=CIRCLE('generated circle',#466,26.5) ;
#23=COLOUR_RGB('Colour',0.823529411765,0.823529411765,1.) ;
#79=CONICAL_SURFACE('Cone',#78,8.53776468764,0.166155967505) ;
#165=CONICAL_SURFACE('Cone',#164,10.5093333532,0.698131700798) ;
#251=CYLINDRICAL_SURFACE('generated cylinder',#250,7.) ;
#394=CYLINDRICAL_SURFACE('generated cylinder',#393,29.5) ;
#122=DEGENERATE_TOROIDAL_SURFACE('homeo Torus',#121,8.87917362132,11.1208263787,.T.) ;
#208=TOROIDAL_SURFACE('homeo Torus',#207,22.,15.) ;
#294=TOROIDAL_SURFACE('homeo Torus',#293,12.,5.) ;
#337=TOROIDAL_SURFACE('homeo Torus',#336,26.5,3.) ;
#437=TOROIDAL_SURFACE('homeo Torus',#436,26.5,3.) ;
#45=EDGE_CURVE('',#42,#44,#40,.F.) ;
#52=EDGE_CURVE('',#44,#51,#49,.T.) ;
#57=EDGE_CURVE('',#42,#51,#56,.F.) ;
#68=EDGE_CURVE('',#51,#44,#67,.T.) ;
#86=EDGE_CURVE('',#44,#85,#83,.T.) ;
#93=EDGE_CURVE('',#85,#92,#90,.F.) ;
#98=EDGE_CURVE('',#51,#92,#97,.T.) ;
#110=EDGE_CURVE('',#92,#85,#109,.F.) ;
#129=EDGE_CURVE('',#85,#128,#126,.F.) ;
#136=EDGE_CURVE('',#128,#135,#133,.T.) ;
#141=EDGE_CURVE('',#92,#135,#140,.F.) ;
#153=EDGE_CURVE('',#135,#128,#152,.T.) ;
#172=EDGE_CURVE('',#128,#171,#169,.F.) ;
#179=EDGE_CURVE('',#171,#178,#176,.T.) ;
#184=EDGE_CURVE('',#135,#178,#183,.F.) ;
#196=EDGE_CURVE('',#178,#171,#195,.T.) ;
#215=EDGE_CURVE('',#171,#214,#212,.T.) ;
#222=EDGE_CURVE('',#214,#221,#219,.T.) ;
#227=EDGE_CURVE('',#178,#221,#226,.T.) ;
#239=EDGE_CURVE('',#221,#214,#238,.T.) ;
#258=EDGE_CURVE('',#214,#257,#255,.F.) ;
#265=EDGE_CURVE('',#257,#264,#262,.T.) ;
#270=EDGE_CURVE('',#221,#264,#269,.F.) ;
#282=EDGE_CURVE('',#264,#257,#281,.T.) ;
#301=EDGE_CURVE('',#257,#300,#298,.T.) ;
#308=EDGE_CURVE('',#300,#307,#305,.T.) ;
#313=EDGE_CURVE('',#264,#307,#312,.T.) ;
#325=EDGE_CURVE('',#307,#300,#324,.T.) ;
#346=EDGE_CURVE('',#343,#345,#341,.T.) ;
#353=EDGE_CURVE('',#343,#352,#350,.F.) ;
#360=EDGE_CURVE('',#352,#359,#357,.T.) ;
#365=EDGE_CURVE('',#345,#359,#364,.F.) ;
#377=EDGE_CURVE('',#345,#343,#376,.T.) ;
#382=EDGE_CURVE('',#359,#352,#381,.T.) ;
#401=EDGE_CURVE('',#352,#400,#398,.F.) ;
#408=EDGE_CURVE('',#400,#407,#405,.T.) ;
#413=EDGE_CURVE('',#359,#407,#412,.F.) ;
#425=EDGE_CURVE('',#407,#400,#424,.T.) ;
#444=EDGE_CURVE('',#400,#443,#441,.F.) ;
#451=EDGE_CURVE('',#443,#450,#448,.T.) ;
#456=EDGE_CURVE('',#407,#450,#455,.F.) ;
#468=EDGE_CURVE('',#450,#443,#467,.T.) ;
#58=EDGE_LOOP('',(#59,#60,#61)) ;
#69=EDGE_LOOP('',(#70,#71,#72)) ;
#99=EDGE_LOOP('',(#100,#101,#102,#103)) ;
#111=EDGE_LOOP('',(#112,#113,#114,#115)) ;
#142=EDGE_LOOP('',(#143,#144,#145,#146)) ;
#154=EDGE_LOOP('',(#155,#156,#157,#158)) ;
#185=EDGE_LOOP('',(#186,#187,#188,#189)) ;
#197=EDGE_LOOP('',(#198,#199,#200,#201)) ;
#228=EDGE_LOOP('',(#229,#230,#231,#232)) ;
#240=EDGE_LOOP('',(#241,#242,#243,#244)) ;
#271=EDGE_LOOP('',(#272,#273,#274,#275)) ;
#283=EDGE_LOOP('',(#284,#285,#286,#287)) ;
#314=EDGE_LOOP('',(#315,#316,#317,#318)) ;
#326=EDGE_LOOP('',(#327,#328,#329,#330)) ;
#366=EDGE_LOOP('',(#367,#368,#369,#370)) ;
#383=EDGE_LOOP('',(#384,#385,#386,#387)) ;
#414=EDGE_LOOP('',(#415,#416,#417,#418)) ;
#426=EDGE_LOOP('',(#427,#428,#429,#430)) ;
#457=EDGE_LOOP('',(#458,#459,#460,#461)) ;
#469=EDGE_LOOP('',(#470,#471,#472,#473)) ;
#481=EDGE_LOOP('',(#482,#483)) ;
#485=EDGE_LOOP('',(#486,#487)) ;
#495=EDGE_LOOP('',(#496,#497)) ;
#62=FACE_OUTER_BOUND('',#58,.T.) ;
#73=FACE_OUTER_BOUND('',#69,.T.) ;
#104=FACE_OUTER_BOUND('',#99,.T.) ;
#116=FACE_OUTER_BOUND('',#111,.T.) ;
#147=FACE_OUTER_BOUND('',#142,.T.) ;
#159=FACE_OUTER_BOUND('',#154,.T.) ;
#190=FACE_OUTER_BOUND('',#185,.T.) ;
#202=FACE_OUTER_BOUND('',#197,.T.) ;
#233=FACE_OUTER_BOUND('',#228,.T.) ;
#245=FACE_OUTER_BOUND('',#240,.T.) ;
#276=FACE_OUTER_BOUND('',#271,.T.) ;
#288=FACE_OUTER_BOUND('',#283,.T.) ;
#319=FACE_OUTER_BOUND('',#314,.T.) ;
#331=FACE_OUTER_BOUND('',#326,.T.) ;
#371=FACE_OUTER_BOUND('',#366,.T.) ;
#388=FACE_OUTER_BOUND('',#383,.T.) ;
#419=FACE_OUTER_BOUND('',#414,.T.) ;
#431=FACE_OUTER_BOUND('',#426,.T.) ;
#462=FACE_OUTER_BOUND('',#457,.T.) ;
#474=FACE_OUTER_BOUND('',#469,.T.) ;
#484=FACE_OUTER_BOUND('',#481,.T.) ;
#498=FACE_OUTER_BOUND('',#495,.T.) ;
#83=LINE('Line',#80,#82) ;
#97=LINE('Line',#94,#96) ;
#169=LINE('Line',#166,#168) ;
#183=LINE('Line',#180,#182) ;
#255=LINE('Line',#252,#254) ;
#269=LINE('Line',#266,#268) ;
#398=LINE('Line',#395,#397) ;
#412=LINE('Line',#409,#411) ;
#480=PLANE('Plane',#479) ;
#494=PLANE('Plane',#493) ;
#14=PLANE_ANGLE_MEASURE_WITH_UNIT(PLANE_ANGLE_MEASURE(0.0174532925199),#13) ;
#9=PRODUCT_CATEGORY_RELATIONSHIP(' ',' ',#7,#8) ;
#6=PRODUCT_DEFINITION_FORMATION_WITH_SPECIFIED_SOURCE('',' ',#5,.NOT_KNOWN.) ;
#21=SHAPE_DEFINITION_REPRESENTATION(#11,#20) ;
#36=SPHERICAL_SURFACE('',#35,8.65699026409) ;
#42=VERTEX_POINT('',#41) ;
#44=VERTEX_POINT('',#43) ;
#51=VERTEX_POINT('',#50) ;
#85=VERTEX_POINT('',#84) ;
#92=VERTEX_POINT('',#91) ;
#128=VERTEX_POINT('',#127) ;
#135=VERTEX_POINT('',#134) ;
#171=VERTEX_POINT('',#170) ;
#178=VERTEX_POINT('',#177) ;
#214=VERTEX_POINT('',#213) ;
#221=VERTEX_POINT('',#220) ;
#257=VERTEX_POINT('',#256) ;
#264=VERTEX_POINT('',#263) ;
#300=VERTEX_POINT('',#299) ;
#307=VERTEX_POINT('',#306) ;
#343=VERTEX_POINT('',#342) ;
#345=VERTEX_POINT('',#344) ;
#352=VERTEX_POINT('',#351) ;
#359=VERTEX_POINT('',#358) ;
#400=VERTEX_POINT('',#399) ;
#407=VERTEX_POINT('',#406) ;
#443=VERTEX_POINT('',#442) ;
#450=VERTEX_POINT('',#449) ;
#12=(LENGTH_UNIT()NAMED_UNIT(*)SI_UNIT(.MILLI.,.METRE.)) ;
#13=(NAMED_UNIT(*)PLANE_ANGLE_UNIT()SI_UNIT($,.RADIAN.)) ;
#15=(NAMED_UNIT(*)SI_UNIT($,.STERADIAN.)SOLID_ANGLE_UNIT()) ;
#17=(GEOMETRIC_REPRESENTATION_CONTEXT(3)GLOBAL_UNCERTAINTY_ASSIGNED_CONTEXT((#16))GLOBAL_UNIT_ASSIGNED_CONTEXT((#12,#13,#15))REPRESENTATION_CONTEXT(' ',' ')) ;
ENDSEC;
END-ISO-10303-21;
