ISO-10303-21;
HEADER;
FILE_DESCRIPTION (( 'STEP AP214' ),
    '1' );
FILE_NAME ('Rondelle blocage rlt v1.STEP',
    '2023-05-22T09:42:48',
    ( '' ),
    ( '' ),
    'SwSTEP 2.0',
    'SolidWorks 2020',
    '' );
FILE_SCHEMA (( 'AUTOMOTIVE_DESIGN' ));
ENDSEC;

DATA;
#1 = DIRECTION ( 'NONE',  ( 1.000000000000000000, 0.000000000000000000, 0.000000000000000000 ) ) ;
#2 = DIRECTION ( 'NONE',  ( -0.000000000000000000, -0.000000000000000000, -1.000000000000000000 ) ) ;
#3 = DIRECTION ( 'NONE',  ( -0.000000000000000000, -0.000000000000000000, -1.000000000000000000 ) ) ;
#4 = APPLICATION_PROTOCOL_DEFINITION ( 'draft international standard', 'automotive_design', 1998, #17 ) ;
#5 = CYLINDRICAL_SURFACE ( 'NONE', #236, 3.299999999999998046 ) ;
#6 = DIRECTION ( 'NONE',  ( 1.000000000000000000, 0.000000000000000000, 0.000000000000000000 ) ) ;
#7 = ORIENTED_EDGE ( 'NONE', *, *, #26, .T. ) ;
#8 = SURFACE_STYLE_FILL_AREA ( #76 ) ;
#9 = ORIENTED_EDGE ( 'NONE', *, *, #81, .T. ) ;
#10 =( NAMED_UNIT ( * ) SI_UNIT ( $, .STERADIAN. ) SOLID_ANGLE_UNIT ( ) );
#11 = CARTESIAN_POINT ( 'NONE',  ( 0.000000000000000000, 0.000000000000000000, 3.499999999999999112 ) ) ;
#12 = CIRCLE ( 'NONE', #108, 3.299999999999997158 ) ;
#13 = CARTESIAN_POINT ( 'NONE',  ( 0.000000000000000000, 0.000000000000000000, 0.000000000000000000 ) ) ;
#14 = AXIS2_PLACEMENT_3D ( 'NONE', #70, #112, #192 ) ;
#15 = EDGE_CURVE ( 'NONE', #125, #196, #87, .T. ) ;
#16 = DIRECTION ( 'NONE',  ( 0.000000000000000000, 0.000000000000000000, 1.000000000000000000 ) ) ;
#17 = APPLICATION_CONTEXT ( 'automotive_design' ) ;
#18 = AXIS2_PLACEMENT_3D ( 'NONE', #212, #150, #95 ) ;
#19 = ORIENTED_EDGE ( 'NONE', *, *, #106, .T. ) ;
#20 = PRESENTATION_LAYER_ASSIGNMENT (  '', '', ( #84 ) ) ;
#21 = EDGE_CURVE ( 'NONE', #115, #196, #36, .T. ) ;
#22 =( LENGTH_UNIT ( ) NAMED_UNIT ( * ) SI_UNIT ( .MILLI., .METRE. ) );
#23 = COLOUR_RGB ( '',0.7921568627450980005, 0.8196078431372548767, 0.9333333333333333481 ) ;
#24 = CARTESIAN_POINT ( 'NONE',  ( -15.00000000000000000, 0.000000000000000000, 3.500000000000000000 ) ) ;
#25 = DIRECTION ( 'NONE',  ( -0.000000000000000000, -0.000000000000000000, -1.000000000000000000 ) ) ;
#26 = EDGE_CURVE ( 'NONE', #83, #252, #259, .T. ) ;
#27 = DIRECTION ( 'NONE',  ( 0.000000000000000000, 0.000000000000000000, 1.000000000000000000 ) ) ;
#28 = DIRECTION ( 'NONE',  ( -1.000000000000000000, 0.000000000000000000, 0.000000000000000000 ) ) ;
#29 = SURFACE_STYLE_USAGE ( .BOTH. , #253 ) ;
#30 = CARTESIAN_POINT ( 'NONE',  ( 15.00000000000000000, 1.836970198721029589E-15, 3.500000000000000000 ) ) ;
#31 = FILL_AREA_STYLE_COLOUR ( '', #137 ) ;
#32 = PRODUCT_RELATED_PRODUCT_CATEGORY ( 'part', '', ( #56 ) ) ;
#33 = VERTEX_POINT ( 'NONE', #69 ) ;
#34 =( NAMED_UNIT ( * ) PLANE_ANGLE_UNIT ( ) SI_UNIT ( $, .RADIAN. ) );
#35 =( LENGTH_UNIT ( ) NAMED_UNIT ( * ) SI_UNIT ( .MILLI., .METRE. ) );
#36 = CIRCLE ( 'NONE', #78, 3.299999999999997158 ) ;
#37 = EDGE_LOOP ( 'NONE', ( #144, #153 ) ) ;
#38 = CARTESIAN_POINT ( 'NONE',  ( 6.299999999999999822, 7.715274834628325378E-16, -8.673617379884035472E-16 ) ) ;
#39 = EDGE_CURVE ( 'NONE', #246, #53, #59, .T. ) ;
#40 = CARTESIAN_POINT ( 'NONE',  ( 0.000000000000000000, 0.000000000000000000, 3.500000000000000000 ) ) ;
#41 =( GEOMETRIC_REPRESENTATION_CONTEXT ( 3 ) GLOBAL_UNCERTAINTY_ASSIGNED_CONTEXT ( ( #148 ) ) GLOBAL_UNIT_ASSIGNED_CONTEXT ( ( #22, #34, #136 ) ) REPRESENTATION_CONTEXT ( 'NONE', 'WORKASPACE' ) );
#42 = EDGE_LOOP ( 'NONE', ( #7, #75 ) ) ;
#43 = ORIENTED_EDGE ( 'NONE', *, *, #241, .T. ) ;
#44 = AXIS2_PLACEMENT_3D ( 'NONE', #172, #27, #6 ) ;
#45 = DIRECTION ( 'NONE',  ( -0.000000000000000000, -0.000000000000000000, -1.000000000000000000 ) ) ;
#46 = DIRECTION ( 'NONE',  ( -0.000000000000000000, -0.000000000000000000, -1.000000000000000000 ) ) ;
#47 = CONICAL_SURFACE ( 'NONE', #182, 6.299999999999999822, 0.7853981633974481680 ) ;
#48 = SHAPE_DEFINITION_REPRESENTATION ( #239, #175 ) ;
#49 = FILL_AREA_STYLE ('',( #245 ) ) ;
#50 = PLANE ( 'NONE',  #111 ) ;
#51 = DIRECTION ( 'NONE',  ( 1.000000000000000000, 0.000000000000000000, -0.000000000000000000 ) ) ;
#52 =( NAMED_UNIT ( * ) SI_UNIT ( $, .STERADIAN. ) SOLID_ANGLE_UNIT ( ) );
#53 = VERTEX_POINT ( 'NONE', #122 ) ;
#54 = ORIENTED_EDGE ( 'NONE', *, *, #21, .F. ) ;
#55 = CARTESIAN_POINT ( 'NONE',  ( 0.000000000000000000, 0.000000000000000000, 0.000000000000000000 ) ) ;
#56 = PRODUCT ( 'Rondelle blocage rlt v1', 'Rondelle blocage rlt v1', '', ( #232 ) ) ;
#57 = DIRECTION ( 'NONE',  ( -1.000000000000000000, 0.000000000000000000, 0.000000000000000000 ) ) ;
#58 = ORIENTED_EDGE ( 'NONE', *, *, #15, .F. ) ;
#59 = CIRCLE ( 'NONE', #201, 6.299999999999999822 ) ;
#60 = ADVANCED_FACE ( 'NONE', ( #257 ), #123, .T. ) ;
#61 = DIRECTION ( 'NONE',  ( 1.000000000000000000, 0.000000000000000000, 0.000000000000000000 ) ) ;
#62 = CARTESIAN_POINT ( 'NONE',  ( 0.000000000000000000, 0.000000000000000000, -8.673617379884035472E-16 ) ) ;
#63 = DIRECTION ( 'NONE',  ( 0.7071067811865474617, 8.659560562354931626E-17, -0.7071067811865476838 ) ) ;
#64 = CIRCLE ( 'NONE', #127, 3.299999999999998934 ) ;
#65 = PRODUCT_DEFINITION ( 'UNKNOWN', '', #177, #186 ) ;
#66 = CIRCLE ( 'NONE', #124, 15.00000000000000000 ) ;
#67 = DIRECTION ( 'NONE',  ( -1.000000000000000000, 0.000000000000000000, 0.000000000000000000 ) ) ;
#68 = EDGE_LOOP ( 'NONE', ( #107, #117 ) ) ;
#69 = CARTESIAN_POINT ( 'NONE',  ( -15.00000000000000000, 0.000000000000000000, 0.000000000000000000 ) ) ;
#70 = CARTESIAN_POINT ( 'NONE',  ( 0.000000000000000000, 0.000000000000000000, 3.499999999999999112 ) ) ;
#71 = VECTOR ( 'NONE', #105, 1000.000000000000000 ) ;
#72 = FACE_OUTER_BOUND ( 'NONE', #90, .T. ) ;
#73 = CARTESIAN_POINT ( 'NONE',  ( 0.000000000000000000, 0.000000000000000000, -8.673617379884035472E-16 ) ) ;
#74 = APPLICATION_PROTOCOL_DEFINITION ( 'draft international standard', 'automotive_design', 1998, #164 ) ;
#75 = ORIENTED_EDGE ( 'NONE', *, *, #243, .T. ) ;
#76 = FILL_AREA_STYLE ('',( #31 ) ) ;
#77 = ORIENTED_EDGE ( 'NONE', *, *, #204, .T. ) ;
#78 = AXIS2_PLACEMENT_3D ( 'NONE', #128, #244, #67 ) ;
#79 = DIRECTION ( 'NONE',  ( -0.000000000000000000, -0.000000000000000000, -1.000000000000000000 ) ) ;
#80 = ORIENTED_EDGE ( 'NONE', *, *, #132, .T. ) ;
#81 = EDGE_CURVE ( 'NONE', #33, #198, #66, .T. ) ;
#82 = CARTESIAN_POINT ( 'NONE',  ( -3.299999999999998934, 0.000000000000000000, 3.499999999999999112 ) ) ;
#83 = VERTEX_POINT ( 'NONE', #242 ) ;
#84 = STYLED_ITEM ( 'NONE', ( #119 ), #175 ) ;
#85 = FACE_OUTER_BOUND ( 'NONE', #42, .T. ) ;
#86 = AXIS2_PLACEMENT_3D ( 'NONE', #62, #224, #211 ) ;
#87 = LINE ( 'NONE', #165, #208 ) ;
#88 = EDGE_CURVE ( 'NONE', #120, #115, #162, .T. ) ;
#89 = CIRCLE ( 'NONE', #155, 15.00000000000000000 ) ;
#90 = EDGE_LOOP ( 'NONE', ( #97, #19, #80, #121 ) ) ;
#91 = CARTESIAN_POINT ( 'NONE',  ( 0.000000000000000000, 0.000000000000000000, 0.000000000000000000 ) ) ;
#92 = DIRECTION ( 'NONE',  ( -1.000000000000000000, 0.000000000000000000, 0.000000000000000000 ) ) ;
#93 = CARTESIAN_POINT ( 'NONE',  ( -6.299999999999999822, 0.000000000000000000, -8.673617379884035472E-16 ) ) ;
#94 = CONICAL_SURFACE ( 'NONE', #18, 6.299999999999999822, 0.7853981633974481680 ) ;
#95 = DIRECTION ( 'NONE',  ( -1.000000000000000000, 0.000000000000000000, 0.000000000000000000 ) ) ;
#96 =( LENGTH_UNIT ( ) NAMED_UNIT ( * ) SI_UNIT ( .MILLI., .METRE. ) );
#97 = ORIENTED_EDGE ( 'NONE', *, *, #241, .F. ) ;
#98 = ADVANCED_FACE ( 'NONE', ( #140, #85 ), #200, .T. ) ;
#99 = DIRECTION ( 'NONE',  ( -1.000000000000000000, 0.000000000000000000, 0.000000000000000000 ) ) ;
#100 = DIRECTION ( 'NONE',  ( -0.000000000000000000, -0.000000000000000000, -1.000000000000000000 ) ) ;
#101 = VECTOR ( 'NONE', #63, 1000.000000000000000 ) ;
#102 = ORIENTED_EDGE ( 'NONE', *, *, #21, .T. ) ;
#103 = CARTESIAN_POINT ( 'NONE',  ( -3.299999999999998046, 0.000000000000000000, 0.000000000000000000 ) ) ;
#104 = AXIS2_PLACEMENT_3D ( 'NONE', #138, #184, #160 ) ;
#105 = DIRECTION ( 'NONE',  ( -0.000000000000000000, -0.000000000000000000, -1.000000000000000000 ) ) ;
#106 = EDGE_CURVE ( 'NONE', #196, #53, #258, .T. ) ;
#107 = ORIENTED_EDGE ( 'NONE', *, *, #235, .T. ) ;
#108 = AXIS2_PLACEMENT_3D ( 'NONE', #118, #79, #99 ) ;
#109 = ORIENTED_EDGE ( 'NONE', *, *, #220, .F. ) ;
#110 = CARTESIAN_POINT ( 'NONE',  ( 15.00000000000000000, 1.836970198721029589E-15, 3.500000000000000000 ) ) ;
#111 = AXIS2_PLACEMENT_3D ( 'NONE', #114, #195, #51 ) ;
#112 = DIRECTION ( 'NONE',  ( -0.000000000000000000, -0.000000000000000000, -1.000000000000000000 ) ) ;
#113 = DIRECTION ( 'NONE',  ( 0.000000000000000000, 0.000000000000000000, 1.000000000000000000 ) ) ;
#114 = CARTESIAN_POINT ( 'NONE',  ( 0.000000000000000000, 0.000000000000000000, 0.000000000000000000 ) ) ;
#115 = VERTEX_POINT ( 'NONE', #183 ) ;
#116 = FACE_OUTER_BOUND ( 'NONE', #254, .T. ) ;
#117 = ORIENTED_EDGE ( 'NONE', *, *, #220, .T. ) ;
#118 = CARTESIAN_POINT ( 'NONE',  ( 0.000000000000000000, 0.000000000000000000, 3.000000000000002665 ) ) ;
#119 = PRESENTATION_STYLE_ASSIGNMENT (( #29 ) ) ;
#120 = VERTEX_POINT ( 'NONE', #82 ) ;
#121 = ORIENTED_EDGE ( 'NONE', *, *, #187, .F. ) ;
#122 = CARTESIAN_POINT ( 'NONE',  ( 6.299999999999999822, 7.715274834628325378E-16, -8.673617379884035472E-16 ) ) ;
#123 = CYLINDRICAL_SURFACE ( 'NONE', #185, 15.00000000000000000 ) ;
#124 = AXIS2_PLACEMENT_3D ( 'NONE', #13, #16, #61 ) ;
#125 = VERTEX_POINT ( 'NONE', #240 ) ;
#126 = SURFACE_STYLE_FILL_AREA ( #49 ) ;
#127 = AXIS2_PLACEMENT_3D ( 'NONE', #11, #100, #199 ) ;
#128 = CARTESIAN_POINT ( 'NONE',  ( 0.000000000000000000, 0.000000000000000000, 3.000000000000002665 ) ) ;
#129 = DIRECTION ( 'NONE',  ( -0.000000000000000000, -0.000000000000000000, -1.000000000000000000 ) ) ;
#130 = CARTESIAN_POINT ( 'NONE',  ( 0.000000000000000000, 0.000000000000000000, 0.000000000000000000 ) ) ;
#131 = LINE ( 'NONE', #93, #225 ) ;
#132 = EDGE_CURVE ( 'NONE', #53, #246, #219, .T. ) ;
#133 = ORIENTED_EDGE ( 'NONE', *, *, #15, .T. ) ;
#134 = CIRCLE ( 'NONE', #14, 3.299999999999998934 ) ;
#135 = ORIENTED_EDGE ( 'NONE', *, *, #88, .F. ) ;
#136 =( NAMED_UNIT ( * ) SI_UNIT ( $, .STERADIAN. ) SOLID_ANGLE_UNIT ( ) );
#137 = COLOUR_RGB ( '',0.7921568627450980005, 0.8196078431372548767, 0.9333333333333333481 ) ;
#138 = CARTESIAN_POINT ( 'NONE',  ( 0.000000000000000000, 0.000000000000000000, 3.500000000000000000 ) ) ;
#139 =( GEOMETRIC_REPRESENTATION_CONTEXT ( 3 ) GLOBAL_UNCERTAINTY_ASSIGNED_CONTEXT ( ( #142 ) ) GLOBAL_UNIT_ASSIGNED_CONTEXT ( ( #35, #215, #52 ) ) REPRESENTATION_CONTEXT ( 'NONE', 'WORKASPACE' ) );
#140 = FACE_BOUND ( 'NONE', #68, .T. ) ;
#141 = ADVANCED_FACE ( 'NONE', ( #116 ), #171, .T. ) ;
#142 = UNCERTAINTY_MEASURE_WITH_UNIT (LENGTH_MEASURE( 1.000000000000000082E-05 ), #35, 'distance_accuracy_value', 'NONE');
#143 = ORIENTED_EDGE ( 'NONE', *, *, #205, .T. ) ;
#144 = ORIENTED_EDGE ( 'NONE', *, *, #39, .F. ) ;
#145 = ADVANCED_FACE ( 'NONE', ( #194 ), #5, .F. ) ;
#146 = DIRECTION ( 'NONE',  ( -0.7071067811865474617, 0.000000000000000000, -0.7071067811865476838 ) ) ;
#147 = DIRECTION ( 'NONE',  ( 1.000000000000000000, 0.000000000000000000, 0.000000000000000000 ) ) ;
#148 = UNCERTAINTY_MEASURE_WITH_UNIT (LENGTH_MEASURE( 1.000000000000000082E-05 ), #22, 'distance_accuracy_value', 'NONE');
#149 = SURFACE_STYLE_USAGE ( .BOTH. , #209 ) ;
#150 = DIRECTION ( 'NONE',  ( -0.000000000000000000, -0.000000000000000000, -1.000000000000000000 ) ) ;
#151 = ADVANCED_FACE ( 'NONE', ( #72 ), #94, .F. ) ;
#152 = FACE_BOUND ( 'NONE', #37, .T. ) ;
#153 = ORIENTED_EDGE ( 'NONE', *, *, #132, .F. ) ;
#154 = ORIENTED_EDGE ( 'NONE', *, *, #243, .F. ) ;
#155 = AXIS2_PLACEMENT_3D ( 'NONE', #91, #207, #1 ) ;
#156 = CARTESIAN_POINT ( 'NONE',  ( -6.299999999999999822, 0.000000000000000000, -8.673617379884035472E-16 ) ) ;
#157 =( NAMED_UNIT ( * ) PLANE_ANGLE_UNIT ( ) SI_UNIT ( $, .RADIAN. ) );
#158 = DIRECTION ( 'NONE',  ( 0.000000000000000000, 0.000000000000000000, 1.000000000000000000 ) ) ;
#159 = ADVANCED_FACE ( 'NONE', ( #231 ), #47, .F. ) ;
#160 = DIRECTION ( 'NONE',  ( 1.000000000000000000, 0.000000000000000000, -0.000000000000000000 ) ) ;
#161 = CIRCLE ( 'NONE', #206, 15.00000000000000000 ) ;
#162 = LINE ( 'NONE', #103, #71 ) ;
#163 = PRESENTATION_LAYER_ASSIGNMENT (  '', '', ( #255 ) ) ;
#164 = APPLICATION_CONTEXT ( 'automotive_design' ) ;
#165 = CARTESIAN_POINT ( 'NONE',  ( 3.299999999999998046, 4.041334437186263538E-16, 0.000000000000000000 ) ) ;
#166 = MECHANICAL_DESIGN_GEOMETRIC_PRESENTATION_REPRESENTATION (  '', ( #255 ), #41 ) ;
#167 = CARTESIAN_POINT ( 'NONE',  ( 0.000000000000000000, 0.000000000000000000, 3.500000000000000000 ) ) ;
#168 = UNCERTAINTY_MEASURE_WITH_UNIT (LENGTH_MEASURE( 1.000000000000000082E-05 ), #96, 'distance_accuracy_value', 'NONE');
#169 = ORIENTED_EDGE ( 'NONE', *, *, #190, .F. ) ;
#170 = PRESENTATION_STYLE_ASSIGNMENT (( #149 ) ) ;
#171 = CYLINDRICAL_SURFACE ( 'NONE', #250, 15.00000000000000000 ) ;
#172 = CARTESIAN_POINT ( 'NONE',  ( 0.000000000000000000, 0.000000000000000000, 0.000000000000000000 ) ) ;
#173 = AXIS2_PLACEMENT_3D ( 'NONE', #167, #113, #147 ) ;
#174 = DIRECTION ( 'NONE',  ( -0.000000000000000000, -0.000000000000000000, -1.000000000000000000 ) ) ;
#175 = ADVANCED_BREP_SHAPE_REPRESENTATION ( 'Rondelle blocage rlt v1', ( #227, #44 ), #139 ) ;
#176 = ORIENTED_EDGE ( 'NONE', *, *, #187, .T. ) ;
#177 = PRODUCT_DEFINITION_FORMATION_WITH_SPECIFIED_SOURCE ( 'ANY', '', #56, .NOT_KNOWN. ) ;
#178 = ORIENTED_EDGE ( 'NONE', *, *, #39, .T. ) ;
#179 = CARTESIAN_POINT ( 'NONE',  ( 0.000000000000000000, 0.000000000000000000, 3.500000000000000000 ) ) ;
#180 = FACE_OUTER_BOUND ( 'NONE', #223, .T. ) ;
#181 = ADVANCED_FACE ( 'NONE', ( #152, #233 ), #50, .F. ) ;
#182 = AXIS2_PLACEMENT_3D ( 'NONE', #73, #25, #28 ) ;
#183 = CARTESIAN_POINT ( 'NONE',  ( -3.299999999999997158, 0.000000000000000000, 3.000000000000002665 ) ) ;
#184 = DIRECTION ( 'NONE',  ( 0.000000000000000000, 0.000000000000000000, 1.000000000000000000 ) ) ;
#185 = AXIS2_PLACEMENT_3D ( 'NONE', #40, #222, #202 ) ;
#186 = PRODUCT_DEFINITION_CONTEXT ( 'detailed design', #17, 'design' ) ;
#187 = EDGE_CURVE ( 'NONE', #115, #246, #131, .T. ) ;
#188 = AXIS2_PLACEMENT_3D ( 'NONE', #55, #256, #57 ) ;
#189 = ORIENTED_EDGE ( 'NONE', *, *, #106, .F. ) ;
#190 = EDGE_CURVE ( 'NONE', #83, #33, #247, .T. ) ;
#191 = LINE ( 'NONE', #110, #213 ) ;
#192 = DIRECTION ( 'NONE',  ( -1.000000000000000000, 0.000000000000000000, 0.000000000000000000 ) ) ;
#193 = MECHANICAL_DESIGN_GEOMETRIC_PRESENTATION_REPRESENTATION (  '', ( #84 ), #203 ) ;
#194 = FACE_OUTER_BOUND ( 'NONE', #218, .T. ) ;
#195 = DIRECTION ( 'NONE',  ( 0.000000000000000000, 0.000000000000000000, 1.000000000000000000 ) ) ;
#196 = VERTEX_POINT ( 'NONE', #228 ) ;
#197 = CARTESIAN_POINT ( 'NONE',  ( 0.000000000000000000, 0.000000000000000000, 3.500000000000000000 ) ) ;
#198 = VERTEX_POINT ( 'NONE', #264 ) ;
#199 = DIRECTION ( 'NONE',  ( -1.000000000000000000, 0.000000000000000000, 0.000000000000000000 ) ) ;
#200 = PLANE ( 'NONE',  #104 ) ;
#201 = AXIS2_PLACEMENT_3D ( 'NONE', #210, #2, #92 ) ;
#202 = DIRECTION ( 'NONE',  ( -1.000000000000000000, 0.000000000000000000, 0.000000000000000000 ) ) ;
#203 =( GEOMETRIC_REPRESENTATION_CONTEXT ( 3 ) GLOBAL_UNCERTAINTY_ASSIGNED_CONTEXT ( ( #168 ) ) GLOBAL_UNIT_ASSIGNED_CONTEXT ( ( #96, #157, #10 ) ) REPRESENTATION_CONTEXT ( 'NONE', 'WORKASPACE' ) );
#204 = EDGE_CURVE ( 'NONE', #252, #198, #191, .T. ) ;
#205 = EDGE_CURVE ( 'NONE', #198, #33, #89, .T. ) ;
#206 = AXIS2_PLACEMENT_3D ( 'NONE', #179, #158, #238 ) ;
#207 = DIRECTION ( 'NONE',  ( 0.000000000000000000, 0.000000000000000000, 1.000000000000000000 ) ) ;
#208 = VECTOR ( 'NONE', #46, 1000.000000000000000 ) ;
#209 = SURFACE_SIDE_STYLE ('',( #126 ) ) ;
#210 = CARTESIAN_POINT ( 'NONE',  ( 0.000000000000000000, 0.000000000000000000, -8.673617379884035472E-16 ) ) ;
#211 = DIRECTION ( 'NONE',  ( -1.000000000000000000, 0.000000000000000000, 0.000000000000000000 ) ) ;
#212 = CARTESIAN_POINT ( 'NONE',  ( 0.000000000000000000, 0.000000000000000000, -8.673617379884035472E-16 ) ) ;
#213 = VECTOR ( 'NONE', #129, 1000.000000000000000 ) ;
#214 = EDGE_LOOP ( 'NONE', ( #189, #54, #176, #178 ) ) ;
#215 =( NAMED_UNIT ( * ) PLANE_ANGLE_UNIT ( ) SI_UNIT ( $, .RADIAN. ) );
#216 = ORIENTED_EDGE ( 'NONE', *, *, #81, .F. ) ;
#217 = CYLINDRICAL_SURFACE ( 'NONE', #188, 3.299999999999998046 ) ;
#218 = EDGE_LOOP ( 'NONE', ( #109, #133, #43, #135 ) ) ;
#219 = CIRCLE ( 'NONE', #86, 6.299999999999999822 ) ;
#220 = EDGE_CURVE ( 'NONE', #125, #120, #134, .T. ) ;
#221 = ORIENTED_EDGE ( 'NONE', *, *, #190, .T. ) ;
#222 = DIRECTION ( 'NONE',  ( -0.000000000000000000, -0.000000000000000000, -1.000000000000000000 ) ) ;
#223 = EDGE_LOOP ( 'NONE', ( #58, #237, #234, #102 ) ) ;
#224 = DIRECTION ( 'NONE',  ( -0.000000000000000000, -0.000000000000000000, -1.000000000000000000 ) ) ;
#225 = VECTOR ( 'NONE', #146, 1000.000000000000000 ) ;
#226 = EDGE_LOOP ( 'NONE', ( #216, #248 ) ) ;
#227 = MANIFOLD_SOLID_BREP ( 'Fraisage pour vis à tête fraisée M61', #230 ) ;
#228 = CARTESIAN_POINT ( 'NONE',  ( 3.299999999999997158, 4.041334437186263045E-16, 3.000000000000002665 ) ) ;
#229 = ORIENTED_EDGE ( 'NONE', *, *, #26, .F. ) ;
#230 = CLOSED_SHELL ( 'NONE', ( #151, #145, #141, #98, #181, #60, #262, #159 ) ) ;
#231 = FACE_OUTER_BOUND ( 'NONE', #214, .T. ) ;
#232 = PRODUCT_CONTEXT ( 'NONE', #164, 'mechanical' ) ;
#233 = FACE_OUTER_BOUND ( 'NONE', #226, .T. ) ;
#234 = ORIENTED_EDGE ( 'NONE', *, *, #88, .T. ) ;
#235 = EDGE_CURVE ( 'NONE', #120, #125, #64, .T. ) ;
#236 = AXIS2_PLACEMENT_3D ( 'NONE', #130, #3, #251 ) ;
#237 = ORIENTED_EDGE ( 'NONE', *, *, #235, .F. ) ;
#238 = DIRECTION ( 'NONE',  ( 1.000000000000000000, 0.000000000000000000, 0.000000000000000000 ) ) ;
#239 = PRODUCT_DEFINITION_SHAPE ( 'NONE', 'NONE',  #65 ) ;
#240 = CARTESIAN_POINT ( 'NONE',  ( 3.299999999999998934, 4.041334437186264524E-16, 3.499999999999999112 ) ) ;
#241 = EDGE_CURVE ( 'NONE', #196, #115, #12, .T. ) ;
#242 = CARTESIAN_POINT ( 'NONE',  ( -15.00000000000000000, 0.000000000000000000, 3.500000000000000000 ) ) ;
#243 = EDGE_CURVE ( 'NONE', #252, #83, #161, .T. ) ;
#244 = DIRECTION ( 'NONE',  ( -0.000000000000000000, -0.000000000000000000, -1.000000000000000000 ) ) ;
#245 = FILL_AREA_STYLE_COLOUR ( '', #23 ) ;
#246 = VERTEX_POINT ( 'NONE', #156 ) ;
#247 = LINE ( 'NONE', #24, #263 ) ;
#248 = ORIENTED_EDGE ( 'NONE', *, *, #205, .F. ) ;
#249 = DIRECTION ( 'NONE',  ( -1.000000000000000000, 0.000000000000000000, 0.000000000000000000 ) ) ;
#250 = AXIS2_PLACEMENT_3D ( 'NONE', #197, #174, #249 ) ;
#251 = DIRECTION ( 'NONE',  ( -1.000000000000000000, 0.000000000000000000, 0.000000000000000000 ) ) ;
#252 = VERTEX_POINT ( 'NONE', #30 ) ;
#253 = SURFACE_SIDE_STYLE ('',( #8 ) ) ;
#254 = EDGE_LOOP ( 'NONE', ( #154, #77, #143, #169 ) ) ;
#255 = STYLED_ITEM ( 'NONE', ( #170 ), #227 ) ;
#256 = DIRECTION ( 'NONE',  ( -0.000000000000000000, -0.000000000000000000, -1.000000000000000000 ) ) ;
#257 = FACE_OUTER_BOUND ( 'NONE', #261, .T. ) ;
#258 = LINE ( 'NONE', #38, #101 ) ;
#259 = CIRCLE ( 'NONE', #173, 15.00000000000000000 ) ;
#260 = ORIENTED_EDGE ( 'NONE', *, *, #204, .F. ) ;
#261 = EDGE_LOOP ( 'NONE', ( #260, #229, #221, #9 ) ) ;
#262 = ADVANCED_FACE ( 'NONE', ( #180 ), #217, .F. ) ;
#263 = VECTOR ( 'NONE', #45, 1000.000000000000000 ) ;
#264 = CARTESIAN_POINT ( 'NONE',  ( 15.00000000000000000, 1.836970198721029589E-15, 0.000000000000000000 ) ) ;
ENDSEC;
END-ISO-10303-21;
