ISO-10303-21;
HEADER;
FILE_DESCRIPTION(('CATIA V6 STEP','CAx-IF Rec.Pracs.--- Model Styling and Organization---1.5--- 2016-08-15','CAx-IF Rec.Pracs.---Supplemental Geometry---1.0---2011-11-01','CAx-IF Rec.Pracs.--- Composite Materials ---3.4---2017-06-13','CAx-IF Rec.Pracs.---Tessellated 3D Geometry---1.0---2015-12-17'),'2;1');

FILE_NAME('\\\\?\\H:\\MATT\\4GM\\S2\\COPR\\COPRS2_rond_etire_25_petit.stp','2023-05-23T13:38:48+00:00',('none'),('none'),'3DEXPERIENCE Platform3DEXPERIENCE R2020x HotFix 18','3DEXPERIENCE Platform STEP AP242 v1','none');

FILE_SCHEMA(('AP242_MANAGED_MODEL_BASED_3D_ENGINEERING_MIM_LF  {1 0 10303 442 1 1 4}'));

ENDSEC;
DATA;
#16=PRODUCT('MS2002_Forme 3D00168680','MS2002_Forme 3D00168680','',(#2)) ;
#2=PRODUCT_CONTEXT(' ',#1,'mechanical') ;
#1=APPLICATION_CONTEXT('managed model based 3d engineering') ;
#18=PRODUCT_DEFINITION('MS2002_Forme 3D00168680',' ',#17,#3) ;
#3=PRODUCT_DEFINITION_CONTEXT('part definition',#1,' ') ;
#19=PRODUCT_DEFINITION_SHAPE(' ',' ',#18) ;
#179=MECHANICAL_DESIGN_GEOMETRIC_PRESENTATION_REPRESENTATION(' ',(#29),#12) ;
#5=PRODUCT_CATEGORY('part','specification') ;
#13=SHAPE_REPRESENTATION(' ',(#15,#21),#12) ;
#14=CARTESIAN_POINT('',(0.,0.,0.)) ;
#31=CARTESIAN_POINT('Axis2P3D Location',(0.,217.5,0.)) ;
#36=CARTESIAN_POINT('Line Origine',(-5.,217.5,0.)) ;
#40=CARTESIAN_POINT('Vertex',(-5.,200.,0.)) ;
#42=CARTESIAN_POINT('Vertex',(-5.,235.,0.)) ;
#45=CARTESIAN_POINT('Axis2P3D Location',(0.,200.,0.)) ;
#49=CARTESIAN_POINT('Vertex',(5.,200.,6.12323399574E-16)) ;
#52=CARTESIAN_POINT('Line Origine',(5.,217.5,6.12323399574E-16)) ;
#56=CARTESIAN_POINT('Vertex',(5.,235.,6.12323399574E-16)) ;
#59=CARTESIAN_POINT('Axis2P3D Location',(0.,235.,0.)) ;
#71=CARTESIAN_POINT('Axis2P3D Location',(0.,200.,0.)) ;
#76=CARTESIAN_POINT('Axis2P3D Location',(0.,235.,0.)) ;
#88=CARTESIAN_POINT('Axis2P3D Location',(0.,235.,0.)) ;
#98=CARTESIAN_POINT('Axis2P3D Location',(0.,200.,0.)) ;
#103=CARTESIAN_POINT('Axis2P3D Location',(0.,200.,0.)) ;
#107=CARTESIAN_POINT('Vertex',(-12.5,200.,0.)) ;
#109=CARTESIAN_POINT('Vertex',(12.5,200.,-4.02030662419E-15)) ;
#112=CARTESIAN_POINT('Axis2P3D Location',(0.,200.,0.)) ;
#126=CARTESIAN_POINT('Axis2P3D Location',(0.,0.,0.)) ;
#131=CARTESIAN_POINT('Axis2P3D Location',(0.,0.,0.)) ;
#135=CARTESIAN_POINT('Vertex',(12.5,0.,-4.02030662419E-15)) ;
#137=CARTESIAN_POINT('Vertex',(-12.5,0.,0.)) ;
#140=CARTESIAN_POINT('Axis2P3D Location',(0.,0.,0.)) ;
#150=CARTESIAN_POINT('Axis2P3D Location',(0.,100.,0.)) ;
#155=CARTESIAN_POINT('Line Origine',(12.5,100.,-4.02030662419E-15)) ;
#160=CARTESIAN_POINT('Line Origine',(-12.5,100.,8.04061324838E-15)) ;
#6=PRODUCT_RELATED_PRODUCT_CATEGORY('part',$,(#16)) ;
#11=UNCERTAINTY_MEASURE_WITH_UNIT(LENGTH_MEASURE(0.005),#8,'distance_accuracy_value','CONFUSED CURVE UNCERTAINTY') ;
#29=STYLED_ITEM(' ',(#28),#21) ;
#28=PRESENTATION_STYLE_ASSIGNMENT((#27)) ;
#27=SURFACE_STYLE_USAGE(.BOTH.,#26) ;
#26=SURFACE_SIDE_STYLE(' ',(#25)) ;
#25=SURFACE_STYLE_FILL_AREA(#24) ;
#24=FILL_AREA_STYLE(' ',(#23)) ;
#23=FILL_AREA_STYLE_COLOUR(' ',#22) ;
#38=VECTOR('Line Direction',#37,1.) ;
#54=VECTOR('Line Direction',#53,1.) ;
#157=VECTOR('Line Direction',#156,1.) ;
#162=VECTOR('Line Direction',#161,1.) ;
#32=DIRECTION('Axis2P3D Direction',(0.,1.,0.)) ;
#33=DIRECTION('Axis2P3D XDirection',(-1.,0.,0.)) ;
#37=DIRECTION('Vector Direction',(0.,1.,0.)) ;
#46=DIRECTION('Axis2P3D Direction',(0.,1.,0.)) ;
#53=DIRECTION('Vector Direction',(0.,1.,0.)) ;
#60=DIRECTION('Axis2P3D Direction',(0.,1.,0.)) ;
#72=DIRECTION('Axis2P3D Direction',(0.,1.,0.)) ;
#77=DIRECTION('Axis2P3D Direction',(0.,1.,0.)) ;
#89=DIRECTION('Axis2P3D Direction',(0.,1.,0.)) ;
#90=DIRECTION('Axis2P3D XDirection',(-1.,0.,0.)) ;
#99=DIRECTION('Axis2P3D Direction',(0.,1.,0.)) ;
#100=DIRECTION('Axis2P3D XDirection',(-1.,0.,0.)) ;
#104=DIRECTION('Axis2P3D Direction',(0.,1.,0.)) ;
#113=DIRECTION('Axis2P3D Direction',(0.,1.,0.)) ;
#127=DIRECTION('Axis2P3D Direction',(0.,1.,0.)) ;
#128=DIRECTION('Axis2P3D XDirection',(-1.,0.,0.)) ;
#132=DIRECTION('Axis2P3D Direction',(0.,1.,0.)) ;
#141=DIRECTION('Axis2P3D Direction',(0.,1.,0.)) ;
#151=DIRECTION('Axis2P3D Direction',(0.,1.,0.)) ;
#152=DIRECTION('Axis2P3D XDirection',(-1.,0.,0.)) ;
#156=DIRECTION('Vector Direction',(0.,1.,0.)) ;
#161=DIRECTION('Vector Direction',(0.,1.,0.)) ;
#15=AXIS2_PLACEMENT_3D('',#14,$,$) ;
#34=AXIS2_PLACEMENT_3D('Cylinder Axis2P3D',#31,#32,#33) ;
#47=AXIS2_PLACEMENT_3D('Circle Axis2P3D',#45,#46,$) ;
#61=AXIS2_PLACEMENT_3D('Circle Axis2P3D',#59,#60,$) ;
#73=AXIS2_PLACEMENT_3D('Circle Axis2P3D',#71,#72,$) ;
#78=AXIS2_PLACEMENT_3D('Circle Axis2P3D',#76,#77,$) ;
#91=AXIS2_PLACEMENT_3D('Plane Axis2P3D',#88,#89,#90) ;
#101=AXIS2_PLACEMENT_3D('Plane Axis2P3D',#98,#99,#100) ;
#105=AXIS2_PLACEMENT_3D('Circle Axis2P3D',#103,#104,$) ;
#114=AXIS2_PLACEMENT_3D('Circle Axis2P3D',#112,#113,$) ;
#129=AXIS2_PLACEMENT_3D('Plane Axis2P3D',#126,#127,#128) ;
#133=AXIS2_PLACEMENT_3D('Circle Axis2P3D',#131,#132,$) ;
#142=AXIS2_PLACEMENT_3D('Circle Axis2P3D',#140,#141,$) ;
#153=AXIS2_PLACEMENT_3D('Cylinder Axis2P3D',#150,#151,#152) ;
#39=LINE('Line',#36,#38) ;
#55=LINE('Line',#52,#54) ;
#158=LINE('Line',#155,#157) ;
#163=LINE('Line',#160,#162) ;
#48=CIRCLE('generated circle',#47,5.) ;
#62=CIRCLE('generated circle',#61,5.) ;
#74=CIRCLE('generated circle',#73,5.) ;
#79=CIRCLE('generated circle',#78,5.) ;
#106=CIRCLE('generated circle',#105,12.5) ;
#115=CIRCLE('generated circle',#114,12.5) ;
#134=CIRCLE('generated circle',#133,12.5) ;
#143=CIRCLE('generated circle',#142,12.5) ;
#92=PLANE('',#91) ;
#102=PLANE('',#101) ;
#130=PLANE('',#129) ;
#35=CYLINDRICAL_SURFACE('generated cylinder',#34,5.) ;
#154=CYLINDRICAL_SURFACE('generated cylinder',#153,12.5) ;
#124=FACE_BOUND('',#121,.T.) ;
#44=EDGE_CURVE('',#41,#43,#39,.T.) ;
#51=EDGE_CURVE('',#41,#50,#48,.T.) ;
#58=EDGE_CURVE('',#50,#57,#55,.T.) ;
#63=EDGE_CURVE('',#43,#57,#62,.T.) ;
#75=EDGE_CURVE('',#50,#41,#74,.T.) ;
#80=EDGE_CURVE('',#57,#43,#79,.T.) ;
#111=EDGE_CURVE('',#108,#110,#106,.T.) ;
#116=EDGE_CURVE('',#110,#108,#115,.T.) ;
#139=EDGE_CURVE('',#136,#138,#134,.T.) ;
#144=EDGE_CURVE('',#138,#136,#143,.T.) ;
#159=EDGE_CURVE('',#136,#110,#158,.T.) ;
#164=EDGE_CURVE('',#138,#108,#163,.T.) ;
#30=CLOSED_SHELL('Closed Shell',(#70,#87,#97,#125,#149,#171,#178)) ;
#65=ORIENTED_EDGE('',*,*,#44,.F.) ;
#66=ORIENTED_EDGE('',*,*,#51,.T.) ;
#67=ORIENTED_EDGE('',*,*,#58,.T.) ;
#68=ORIENTED_EDGE('',*,*,#63,.F.) ;
#82=ORIENTED_EDGE('',*,*,#58,.F.) ;
#83=ORIENTED_EDGE('',*,*,#75,.T.) ;
#84=ORIENTED_EDGE('',*,*,#44,.T.) ;
#85=ORIENTED_EDGE('',*,*,#80,.F.) ;
#94=ORIENTED_EDGE('',*,*,#63,.T.) ;
#95=ORIENTED_EDGE('',*,*,#80,.T.) ;
#118=ORIENTED_EDGE('',*,*,#111,.T.) ;
#119=ORIENTED_EDGE('',*,*,#116,.T.) ;
#122=ORIENTED_EDGE('',*,*,#51,.F.) ;
#123=ORIENTED_EDGE('',*,*,#75,.F.) ;
#146=ORIENTED_EDGE('',*,*,#139,.F.) ;
#147=ORIENTED_EDGE('',*,*,#144,.F.) ;
#166=ORIENTED_EDGE('',*,*,#159,.F.) ;
#167=ORIENTED_EDGE('',*,*,#139,.T.) ;
#168=ORIENTED_EDGE('',*,*,#164,.T.) ;
#169=ORIENTED_EDGE('',*,*,#116,.F.) ;
#173=ORIENTED_EDGE('',*,*,#164,.F.) ;
#174=ORIENTED_EDGE('',*,*,#144,.T.) ;
#175=ORIENTED_EDGE('',*,*,#159,.T.) ;
#176=ORIENTED_EDGE('',*,*,#111,.F.) ;
#64=EDGE_LOOP('',(#65,#66,#67,#68)) ;
#81=EDGE_LOOP('',(#82,#83,#84,#85)) ;
#93=EDGE_LOOP('',(#94,#95)) ;
#117=EDGE_LOOP('',(#118,#119)) ;
#121=EDGE_LOOP('',(#122,#123)) ;
#145=EDGE_LOOP('',(#146,#147)) ;
#165=EDGE_LOOP('',(#166,#167,#168,#169)) ;
#172=EDGE_LOOP('',(#173,#174,#175,#176)) ;
#21=MANIFOLD_SOLID_BREP('Corps principal',#30) ;
#41=VERTEX_POINT('',#40) ;
#43=VERTEX_POINT('',#42) ;
#50=VERTEX_POINT('',#49) ;
#57=VERTEX_POINT('',#56) ;
#108=VERTEX_POINT('',#107) ;
#110=VERTEX_POINT('',#109) ;
#136=VERTEX_POINT('',#135) ;
#138=VERTEX_POINT('',#137) ;
#70=ADVANCED_FACE('Corps principal',(#69),#35,.T.) ;
#87=ADVANCED_FACE('Corps principal',(#86),#35,.T.) ;
#97=ADVANCED_FACE('Corps principal',(#96),#92,.T.) ;
#125=ADVANCED_FACE('Corps principal',(#120,#124),#102,.T.) ;
#149=ADVANCED_FACE('Corps principal',(#148),#130,.F.) ;
#171=ADVANCED_FACE('Corps principal',(#170),#154,.T.) ;
#178=ADVANCED_FACE('Corps principal',(#177),#154,.T.) ;
#4=APPLICATION_PROTOCOL_DEFINITION('international standard','ap242_managed_model_based_3d_engineering',2014,#1) ;
#22=COLOUR_RGB('Colour',0.882352941176,0.882352941176,0.882352941176) ;
#69=FACE_OUTER_BOUND('',#64,.T.) ;
#86=FACE_OUTER_BOUND('',#81,.T.) ;
#96=FACE_OUTER_BOUND('',#93,.T.) ;
#120=FACE_OUTER_BOUND('',#117,.T.) ;
#148=FACE_OUTER_BOUND('',#145,.T.) ;
#170=FACE_OUTER_BOUND('',#165,.T.) ;
#177=FACE_OUTER_BOUND('',#172,.T.) ;
#7=PRODUCT_CATEGORY_RELATIONSHIP(' ',' ',#5,#6) ;
#17=PRODUCT_DEFINITION_FORMATION_WITH_SPECIFIED_SOURCE('',' ',#16,.NOT_KNOWN.) ;
#20=SHAPE_DEFINITION_REPRESENTATION(#19,#13) ;
#8=(LENGTH_UNIT()NAMED_UNIT(*)SI_UNIT(.MILLI.,.METRE.)) ;
#9=(NAMED_UNIT(*)PLANE_ANGLE_UNIT()SI_UNIT($,.RADIAN.)) ;
#10=(NAMED_UNIT(*)SI_UNIT($,.STERADIAN.)SOLID_ANGLE_UNIT()) ;
#12=(GEOMETRIC_REPRESENTATION_CONTEXT(3)GLOBAL_UNCERTAINTY_ASSIGNED_CONTEXT((#11))GLOBAL_UNIT_ASSIGNED_CONTEXT((#8,#9,#10))REPRESENTATION_CONTEXT(' ',' ')) ;
ENDSEC;
END-ISO-10303-21;
