ISO-10303-21;
HEADER;
FILE_DESCRIPTION (( 'STEP AP214' ),
    '1' );
FILE_NAME ('tendeur.STEP',
    '2023-05-22T06:21:22',
    ( '' ),
    ( '' ),
    'SwSTEP 2.0',
    'SolidWorks 2020',
    '' );
FILE_SCHEMA (( 'AUTOMOTIVE_DESIGN' ));
ENDSEC;

DATA;
#1 = CARTESIAN_POINT ( 'NONE',  ( -39.99999999999998579, 15.00000000000000178, 25.00000000000000000 ) ) ;
#2 = CARTESIAN_POINT ( 'NONE',  ( 35.50000000000000000, 1.679421561945371873E-14, 0.000000000000000000 ) ) ;
#3 = ORIENTED_EDGE ( 'NONE', *, *, #113, .F. ) ;
#4 = CARTESIAN_POINT ( 'NONE',  ( 24.50000000000000000, 1.612065987992267542E-14, 0.000000000000000000 ) ) ;
#5 = DIRECTION ( 'NONE',  ( -0.000000000000000000, -0.000000000000000000, -1.000000000000000000 ) ) ;
#6 = ADVANCED_FACE ( 'NONE', ( #33 ), #231, .F. ) ;
#7 = DIRECTION ( 'NONE',  ( 0.000000000000000000, 0.000000000000000000, 1.000000000000000000 ) ) ;
#8 = CARTESIAN_POINT ( 'NONE',  ( -39.99999999999997868, -14.99999999999999645, 25.00000000000000000 ) ) ;
#9 = CARTESIAN_POINT ( 'NONE',  ( 0.000000000000000000, 0.000000000000000000, 25.00000000000000000 ) ) ;
#10 = CARTESIAN_POINT ( 'NONE',  ( -30.00000000000000000, 5.098838687596501826E-15, 0.000000000000000000 ) ) ;
#11 = CARTESIAN_POINT ( 'NONE',  ( -39.99999999999998579, 15.00000000000000178, 0.000000000000000000 ) ) ;
#12 = ORIENTED_EDGE ( 'NONE', *, *, #78, .F. ) ;
#13 = AXIS2_PLACEMENT_3D ( 'NONE', #200, #116, #297 ) ;
#14 = EDGE_CURVE ( 'NONE', #217, #145, #228, .T. ) ;
#15 = ORIENTED_EDGE ( 'NONE', *, *, #344, .F. ) ;
#16 = EDGE_CURVE ( 'NONE', #173, #117, #71, .T. ) ;
#17 = SURFACE_STYLE_FILL_AREA ( #183 ) ;
#18 = VECTOR ( 'NONE', #277, 1000.000000000000000 ) ;
#19 = DIRECTION ( 'NONE',  ( 1.000000000000000000, 0.000000000000000000, -0.000000000000000000 ) ) ;
#20 = ORIENTED_EDGE ( 'NONE', *, *, #184, .T. ) ;
#21 = VECTOR ( 'NONE', #201, 1000.000000000000000 ) ;
#22 = DIRECTION ( 'NONE',  ( 0.000000000000000000, 0.000000000000000000, 1.000000000000000000 ) ) ;
#23 = VERTEX_POINT ( 'NONE', #38 ) ;
#24 = CARTESIAN_POINT ( 'NONE',  ( -39.99999999999998579, 15.00000000000000178, 25.00000000000000000 ) ) ;
#25 = ORIENTED_EDGE ( 'NONE', *, *, #16, .F. ) ;
#26 = DIRECTION ( 'NONE',  ( -0.000000000000000000, -0.000000000000000000, -1.000000000000000000 ) ) ;
#27 = VECTOR ( 'NONE', #251, 1000.000000000000000 ) ;
#28 = ORIENTED_EDGE ( 'NONE', *, *, #327, .T. ) ;
#29 = DIRECTION ( 'NONE',  ( 1.000000000000000000, 2.312964634635743450E-16, -0.000000000000000000 ) ) ;
#30 = ORIENTED_EDGE ( 'NONE', *, *, #127, .T. ) ;
#31 = CARTESIAN_POINT ( 'NONE',  ( 30.00000000000000000, 1.612065987992267542E-14, 25.00000000000000000 ) ) ;
#32 = CARTESIAN_POINT ( 'NONE',  ( -39.99999999999997868, -14.99999999999999645, 25.00000000000000000 ) ) ;
#33 = FACE_OUTER_BOUND ( 'NONE', #63, .T. ) ;
#34 = CIRCLE ( 'NONE', #235, 5.499999999999998224 ) ;
#35 = ADVANCED_FACE ( 'NONE', ( #329, #264, #317 ), #218, .F. ) ;
#36 = CARTESIAN_POINT ( 'NONE',  ( 40.00000000000001421, 15.00000000000000178, 25.00000000000000000 ) ) ;
#37 = LINE ( 'NONE', #11, #298 ) ;
#38 = CARTESIAN_POINT ( 'NONE',  ( -35.50000000000000000, 5.098838687596501826E-15, 0.000000000000000000 ) ) ;
#39 = VECTOR ( 'NONE', #26, 1000.000000000000000 ) ;
#40 = LINE ( 'NONE', #233, #171 ) ;
#41 = PRESENTATION_LAYER_ASSIGNMENT (  '', '', ( #188 ) ) ;
#42 = CARTESIAN_POINT ( 'NONE',  ( -39.99999999999997868, -14.99999999999999645, 0.000000000000000000 ) ) ;
#43 = ORIENTED_EDGE ( 'NONE', *, *, #14, .F. ) ;
#44 =( NAMED_UNIT ( * ) PLANE_ANGLE_UNIT ( ) SI_UNIT ( $, .RADIAN. ) );
#45 = AXIS2_PLACEMENT_3D ( 'NONE', #239, #220, #340 ) ;
#46 = DIRECTION ( 'NONE',  ( 0.000000000000000000, 0.000000000000000000, 1.000000000000000000 ) ) ;
#47 = ORIENTED_EDGE ( 'NONE', *, *, #127, .F. ) ;
#48 = AXIS2_PLACEMENT_3D ( 'NONE', #115, #144, #244 ) ;
#49 = EDGE_CURVE ( 'NONE', #81, #101, #288, .T. ) ;
#50 = DIRECTION ( 'NONE',  ( -1.000000000000000000, -0.000000000000000000, -0.000000000000000000 ) ) ;
#51 = ORIENTED_EDGE ( 'NONE', *, *, #14, .T. ) ;
#52 = MANIFOLD_SOLID_BREP ( 'Boss.-Extru.1', #169 ) ;
#53 = FILL_AREA_STYLE ('',( #135 ) ) ;
#54 = ORIENTED_EDGE ( 'NONE', *, *, #120, .F. ) ;
#55 = ORIENTED_EDGE ( 'NONE', *, *, #344, .T. ) ;
#56 = ORIENTED_EDGE ( 'NONE', *, *, #78, .T. ) ;
#57 = ADVANCED_FACE ( 'NONE', ( #345 ), #137, .F. ) ;
#58 =( LENGTH_UNIT ( ) NAMED_UNIT ( * ) SI_UNIT ( .MILLI., .METRE. ) );
#59 = ORIENTED_EDGE ( 'NONE', *, *, #98, .F. ) ;
#60 = SURFACE_STYLE_USAGE ( .BOTH. , #195 ) ;
#61 = ADVANCED_FACE ( 'NONE', ( #110 ), #293, .F. ) ;
#62 = CARTESIAN_POINT ( 'NONE',  ( -39.99999999999998579, 15.00000000000000178, 25.00000000000000000 ) ) ;
#63 = EDGE_LOOP ( 'NONE', ( #25, #225, #20, #154 ) ) ;
#64 = DIRECTION ( 'NONE',  ( 0.000000000000000000, 0.000000000000000000, 1.000000000000000000 ) ) ;
#65 = CIRCLE ( 'NONE', #75, 5.499999999999998224 ) ;
#66 = STYLED_ITEM ( 'NONE', ( #82 ), #52 ) ;
#67 = FACE_OUTER_BOUND ( 'NONE', #343, .T. ) ;
#68 = PRODUCT ( 'tendeur', 'tendeur', '', ( #280 ) ) ;
#69 = DIRECTION ( 'NONE',  ( -0.000000000000000000, -0.000000000000000000, -1.000000000000000000 ) ) ;
#70 = CARTESIAN_POINT ( 'NONE',  ( -30.00000000000000000, 5.098838687596501826E-15, 25.00000000000000000 ) ) ;
#71 = LINE ( 'NONE', #179, #18 ) ;
#72 = FACE_BOUND ( 'NONE', #263, .T. ) ;
#73 = EDGE_CURVE ( 'NONE', #186, #138, #106, .T. ) ;
#74 = DIRECTION ( 'NONE',  ( 0.000000000000000000, 0.000000000000000000, 1.000000000000000000 ) ) ;
#75 = AXIS2_PLACEMENT_3D ( 'NONE', #119, #7, #325 ) ;
#76 = ORIENTED_EDGE ( 'NONE', *, *, #341, .T. ) ;
#77 = APPLICATION_CONTEXT ( 'automotive_design' ) ;
#78 = EDGE_CURVE ( 'NONE', #104, #243, #227, .T. ) ;
#79 =( LENGTH_UNIT ( ) NAMED_UNIT ( * ) SI_UNIT ( .MILLI., .METRE. ) );
#80 = ORIENTED_EDGE ( 'NONE', *, *, #49, .T. ) ;
#81 = VERTEX_POINT ( 'NONE', #1 ) ;
#82 = PRESENTATION_STYLE_ASSIGNMENT (( #60 ) ) ;
#83 = ORIENTED_EDGE ( 'NONE', *, *, #257, .F. ) ;
#84 = AXIS2_PLACEMENT_3D ( 'NONE', #246, #64, #198 ) ;
#85 =( NAMED_UNIT ( * ) SI_UNIT ( $, .STERADIAN. ) SOLID_ANGLE_UNIT ( ) );
#86 = EDGE_LOOP ( 'NONE', ( #47, #54 ) ) ;
#87 = VECTOR ( 'NONE', #156, 1000.000000000000000 ) ;
#88 = DIRECTION ( 'NONE',  ( -0.000000000000000000, -0.000000000000000000, -1.000000000000000000 ) ) ;
#89 = ADVANCED_FACE ( 'NONE', ( #242 ), #275, .F. ) ;
#90 = CYLINDRICAL_SURFACE ( 'NONE', #267, 5.499999999999998224 ) ;
#91 = PRODUCT_DEFINITION_FORMATION_WITH_SPECIFIED_SOURCE ( 'ANY', '', #68, .NOT_KNOWN. ) ;
#92 = CARTESIAN_POINT ( 'NONE',  ( -24.50000000000000000, 5.772394427127545141E-15, 25.00000000000000000 ) ) ;
#93 = CARTESIAN_POINT ( 'NONE',  ( -35.50000000000000000, 5.098838687596501826E-15, 25.00000000000000000 ) ) ;
#94 = PRODUCT_RELATED_PRODUCT_CATEGORY ( 'part', '', ( #68 ) ) ;
#95 = DIRECTION ( 'NONE',  ( 0.000000000000000000, -0.000000000000000000, -1.000000000000000000 ) ) ;
#96 = LINE ( 'NONE', #93, #241 ) ;
#97 = DIRECTION ( 'NONE',  ( 0.000000000000000000, 0.000000000000000000, 1.000000000000000000 ) ) ;
#98 = EDGE_CURVE ( 'NONE', #210, #117, #131, .T. ) ;
#99 = LINE ( 'NONE', #332, #27 ) ;
#100 = DIRECTION ( 'NONE',  ( 0.000000000000000000, 0.000000000000000000, 1.000000000000000000 ) ) ;
#101 = VERTEX_POINT ( 'NONE', #205 ) ;
#102 = LINE ( 'NONE', #255, #306 ) ;
#103 = CARTESIAN_POINT ( 'NONE',  ( -39.99999999999997868, -14.99999999999999645, 25.00000000000000000 ) ) ;
#104 = VERTEX_POINT ( 'NONE', #151 ) ;
#105 = ORIENTED_EDGE ( 'NONE', *, *, #109, .T. ) ;
#106 = LINE ( 'NONE', #36, #339 ) ;
#107 = CIRCLE ( 'NONE', #48, 5.499999999999998224 ) ;
#108 = ORIENTED_EDGE ( 'NONE', *, *, #226, .F. ) ;
#109 = EDGE_CURVE ( 'NONE', #101, #217, #349, .T. ) ;
#110 = FACE_OUTER_BOUND ( 'NONE', #114, .T. ) ;
#111 = AXIS2_PLACEMENT_3D ( 'NONE', #62, #29, #178 ) ;
#112 = VECTOR ( 'NONE', #208, 1000.000000000000000 ) ;
#113 = EDGE_CURVE ( 'NONE', #104, #134, #175, .T. ) ;
#114 = EDGE_LOOP ( 'NONE', ( #164, #56, #284, #216 ) ) ;
#115 = CARTESIAN_POINT ( 'NONE',  ( 30.00000000000000000, 1.612065987992267542E-14, 0.000000000000000000 ) ) ;
#116 = DIRECTION ( 'NONE',  ( 0.000000000000000000, 0.000000000000000000, 1.000000000000000000 ) ) ;
#117 = VERTEX_POINT ( 'NONE', #2 ) ;
#118 = MECHANICAL_DESIGN_GEOMETRIC_PRESENTATION_REPRESENTATION (  '', ( #188 ), #347 ) ;
#119 = CARTESIAN_POINT ( 'NONE',  ( 30.00000000000000000, 1.612065987992267542E-14, 25.00000000000000000 ) ) ;
#120 = EDGE_CURVE ( 'NONE', #173, #303, #65, .T. ) ;
#121 = DIRECTION ( 'NONE',  ( -1.000000000000000000, 0.000000000000000000, 0.000000000000000000 ) ) ;
#122 = DIRECTION ( 'NONE',  ( -1.000000000000000000, 0.000000000000000000, 0.000000000000000000 ) ) ;
#123 = CARTESIAN_POINT ( 'NONE',  ( 30.00000000000000000, 1.612065987992267542E-14, 25.00000000000000000 ) ) ;
#124 = CARTESIAN_POINT ( 'NONE',  ( -39.99999999999997868, -14.99999999999999645, 0.000000000000000000 ) ) ;
#125 = AXIS2_PLACEMENT_3D ( 'NONE', #312, #100, #159 ) ;
#126 = DIRECTION ( 'NONE',  ( -1.000000000000000000, 2.168404344971009176E-17, 0.000000000000000000 ) ) ;
#127 = EDGE_CURVE ( 'NONE', #303, #173, #34, .T. ) ;
#128 = CARTESIAN_POINT ( 'NONE',  ( 24.50000000000000000, 1.612065987992267542E-14, 25.00000000000000000 ) ) ;
#129 = LINE ( 'NONE', #162, #155 ) ;
#130 = CARTESIAN_POINT ( 'NONE',  ( 40.00000000000000711, -14.99999999999999822, 25.00000000000000000 ) ) ;
#131 = CIRCLE ( 'NONE', #84, 5.499999999999998224 ) ;
#132 = LINE ( 'NONE', #103, #252 ) ;
#133 = COLOUR_RGB ( '',0.7921568627450980005, 0.8196078431372548767, 0.9333333333333333481 ) ;
#134 = VERTEX_POINT ( 'NONE', #320 ) ;
#135 = FILL_AREA_STYLE_COLOUR ( '', #133 ) ;
#136 = EDGE_LOOP ( 'NONE', ( #170, #234, #55, #76 ) ) ;
#137 = PLANE ( 'NONE',  #45 ) ;
#138 = VERTEX_POINT ( 'NONE', #323 ) ;
#139 = ADVANCED_FACE ( 'NONE', ( #174 ), #176, .F. ) ;
#140 = ORIENTED_EDGE ( 'NONE', *, *, #109, .F. ) ;
#141 = AXIS2_PLACEMENT_3D ( 'NONE', #182, #97, #308 ) ;
#142 = DIRECTION ( 'NONE',  ( -0.000000000000000000, -0.000000000000000000, -1.000000000000000000 ) ) ;
#143 = EDGE_LOOP ( 'NONE', ( #30, #321, #59, #192 ) ) ;
#144 = DIRECTION ( 'NONE',  ( 0.000000000000000000, 0.000000000000000000, 1.000000000000000000 ) ) ;
#145 = VERTEX_POINT ( 'NONE', #249 ) ;
#146 = CARTESIAN_POINT ( 'NONE',  ( -39.99999999999998579, 15.00000000000000178, 25.00000000000000000 ) ) ;
#147 = ORIENTED_EDGE ( 'NONE', *, *, #341, .F. ) ;
#148 = EDGE_CURVE ( 'NONE', #134, #23, #96, .T. ) ;
#149 = CARTESIAN_POINT ( 'NONE',  ( 40.00000000000001421, 15.00000000000000178, 25.00000000000000000 ) ) ;
#150 = CARTESIAN_POINT ( 'NONE',  ( 30.00000000000000000, 1.612065987992267542E-14, 25.00000000000000000 ) ) ;
#151 = CARTESIAN_POINT ( 'NONE',  ( -24.50000000000000000, 5.772394427127545141E-15, 25.00000000000000000 ) ) ;
#152 = AXIS2_PLACEMENT_3D ( 'NONE', #150, #5, #122 ) ;
#153 = DIRECTION ( 'NONE',  ( 0.000000000000000000, 0.000000000000000000, 1.000000000000000000 ) ) ;
#154 = ORIENTED_EDGE ( 'NONE', *, *, #167, .F. ) ;
#155 = VECTOR ( 'NONE', #181, 1000.000000000000000 ) ;
#156 = DIRECTION ( 'NONE',  ( -0.000000000000000000, -0.000000000000000000, -1.000000000000000000 ) ) ;
#157 =( LENGTH_UNIT ( ) NAMED_UNIT ( * ) SI_UNIT ( .MILLI., .METRE. ) );
#158 = DIRECTION ( 'NONE',  ( 1.000000000000000000, 0.000000000000000000, -0.000000000000000000 ) ) ;
#159 = DIRECTION ( 'NONE',  ( 1.000000000000000000, 0.000000000000000000, 0.000000000000000000 ) ) ;
#160 = EDGE_LOOP ( 'NONE', ( #105, #265, #15, #80 ) ) ;
#161 = AXIS2_PLACEMENT_3D ( 'NONE', #70, #276, #121 ) ;
#162 = CARTESIAN_POINT ( 'NONE',  ( -39.99999999999998579, 15.00000000000000178, 25.00000000000000000 ) ) ;
#163 = ADVANCED_FACE ( 'NONE', ( #203 ), #307, .F. ) ;
#164 = ORIENTED_EDGE ( 'NONE', *, *, #290, .T. ) ;
#165 = ORIENTED_EDGE ( 'NONE', *, *, #236, .T. ) ;
#166 = UNCERTAINTY_MEASURE_WITH_UNIT (LENGTH_MEASURE( 1.000000000000000082E-05 ), #58, 'distance_accuracy_value', 'NONE');
#167 = EDGE_CURVE ( 'NONE', #117, #210, #107, .T. ) ;
#168 = CARTESIAN_POINT ( 'NONE',  ( -30.00000000000000000, 5.098838687596501826E-15, 25.00000000000000000 ) ) ;
#169 = CLOSED_SHELL ( 'NONE', ( #204, #61, #295, #35, #57, #89, #139, #211, #163, #6 ) ) ;
#170 = ORIENTED_EDGE ( 'NONE', *, *, #226, .T. ) ;
#171 = VECTOR ( 'NONE', #207, 1000.000000000000000 ) ;
#172 = DIRECTION ( 'NONE',  ( 0.000000000000000000, -1.000000000000000000, 0.000000000000000000 ) ) ;
#173 = VERTEX_POINT ( 'NONE', #221 ) ;
#174 = FACE_OUTER_BOUND ( 'NONE', #160, .T. ) ;
#175 = CIRCLE ( 'NONE', #13, 5.499999999999998224 ) ;
#176 = PLANE ( 'NONE',  #111 ) ;
#177 = DIRECTION ( 'NONE',  ( -0.000000000000000000, -0.000000000000000000, -1.000000000000000000 ) ) ;
#178 = DIRECTION ( 'NONE',  ( -2.312964634635743450E-16, 1.000000000000000000, 0.000000000000000000 ) ) ;
#179 = CARTESIAN_POINT ( 'NONE',  ( 35.50000000000000000, 1.679421561945371873E-14, 25.00000000000000000 ) ) ;
#180 = FACE_OUTER_BOUND ( 'NONE', #136, .T. ) ;
#181 = DIRECTION ( 'NONE',  ( 2.312964634635742957E-16, -1.000000000000000000, 0.000000000000000000 ) ) ;
#182 = CARTESIAN_POINT ( 'NONE',  ( -30.00000000000000000, 5.098838687596501826E-15, 25.00000000000000000 ) ) ;
#183 = FILL_AREA_STYLE ('',( #187 ) ) ;
#184 = EDGE_CURVE ( 'NONE', #303, #210, #318, .T. ) ;
#185 = APPLICATION_PROTOCOL_DEFINITION ( 'draft international standard', 'automotive_design', 1998, #77 ) ;
#186 = VERTEX_POINT ( 'NONE', #149 ) ;
#187 = FILL_AREA_STYLE_COLOUR ( '', #274 ) ;
#188 = STYLED_ITEM ( 'NONE', ( #283 ), #299 ) ;
#189 = VERTEX_POINT ( 'NONE', #223 ) ;
#190 = CARTESIAN_POINT ( 'NONE',  ( 0.000000000000000000, 0.000000000000000000, 0.000000000000000000 ) ) ;
#191 = ORIENTED_EDGE ( 'NONE', *, *, #73, .T. ) ;
#192 = ORIENTED_EDGE ( 'NONE', *, *, #184, .F. ) ;
#193 = AXIS2_PLACEMENT_3D ( 'NONE', #230, #74, #279 ) ;
#194 = UNCERTAINTY_MEASURE_WITH_UNIT (LENGTH_MEASURE( 1.000000000000000082E-05 ), #157, 'distance_accuracy_value', 'NONE');
#195 = SURFACE_SIDE_STYLE ('',( #260 ) ) ;
#196 = AXIS2_PLACEMENT_3D ( 'NONE', #190, #22, #19 ) ;
#197 = VECTOR ( 'NONE', #177, 1000.000000000000000 ) ;
#198 = DIRECTION ( 'NONE',  ( 1.000000000000000000, 0.000000000000000000, 0.000000000000000000 ) ) ;
#199 =( GEOMETRIC_REPRESENTATION_CONTEXT ( 3 ) GLOBAL_UNCERTAINTY_ASSIGNED_CONTEXT ( ( #194 ) ) GLOBAL_UNIT_ASSIGNED_CONTEXT ( ( #157, #44, #212 ) ) REPRESENTATION_CONTEXT ( 'NONE', 'WORKASPACE' ) );
#200 = CARTESIAN_POINT ( 'NONE',  ( -30.00000000000000000, 5.098838687596501826E-15, 25.00000000000000000 ) ) ;
#201 = DIRECTION ( 'NONE',  ( -0.000000000000000000, -0.000000000000000000, -1.000000000000000000 ) ) ;
#202 = APPLICATION_CONTEXT ( 'automotive_design' ) ;
#203 = FACE_OUTER_BOUND ( 'NONE', #289, .T. ) ;
#204 = ADVANCED_FACE ( 'NONE', ( #300 ), #90, .F. ) ;
#205 = CARTESIAN_POINT ( 'NONE',  ( -39.99999999999998579, 15.00000000000000178, 0.000000000000000000 ) ) ;
#206 = DIRECTION ( 'NONE',  ( 1.000000000000000000, -2.168404344971009176E-17, 0.000000000000000000 ) ) ;
#207 = DIRECTION ( 'NONE',  ( 2.312964634635742957E-16, 1.000000000000000000, -0.000000000000000000 ) ) ;
#208 = DIRECTION ( 'NONE',  ( -0.000000000000000000, -0.000000000000000000, -1.000000000000000000 ) ) ;
#209 = APPLICATION_PROTOCOL_DEFINITION ( 'draft international standard', 'automotive_design', 1998, #202 ) ;
#210 = VERTEX_POINT ( 'NONE', #4 ) ;
#211 = ADVANCED_FACE ( 'NONE', ( #67 ), #272, .F. ) ;
#212 =( NAMED_UNIT ( * ) SI_UNIT ( $, .STERADIAN. ) SOLID_ANGLE_UNIT ( ) );
#213 = ORIENTED_EDGE ( 'NONE', *, *, #290, .F. ) ;
#214 = SHAPE_DEFINITION_REPRESENTATION ( #304, #299 ) ;
#215 = DIRECTION ( 'NONE',  ( 1.000000000000000000, 0.000000000000000000, 0.000000000000000000 ) ) ;
#216 = ORIENTED_EDGE ( 'NONE', *, *, #148, .F. ) ;
#217 = VERTEX_POINT ( 'NONE', #42 ) ;
#218 = PLANE ( 'NONE',  #196 ) ;
#219 = ORIENTED_EDGE ( 'NONE', *, *, #148, .T. ) ;
#220 = DIRECTION ( 'NONE',  ( -1.000000000000000000, 2.312964634635743450E-16, 0.000000000000000000 ) ) ;
#221 = CARTESIAN_POINT ( 'NONE',  ( 35.50000000000000000, 1.679421561945371873E-14, 25.00000000000000000 ) ) ;
#222 = PRESENTATION_LAYER_ASSIGNMENT (  '', '', ( #66 ) ) ;
#223 = CARTESIAN_POINT ( 'NONE',  ( -39.99999999999997868, -14.99999999999999645, 25.00000000000000000 ) ) ;
#224 = DIRECTION ( 'NONE',  ( -0.000000000000000000, -0.000000000000000000, -1.000000000000000000 ) ) ;
#225 = ORIENTED_EDGE ( 'NONE', *, *, #120, .T. ) ;
#226 = EDGE_CURVE ( 'NONE', #331, #186, #99, .T. ) ;
#227 = LINE ( 'NONE', #92, #197 ) ;
#228 = LINE ( 'NONE', #124, #338 ) ;
#229 = DIRECTION ( 'NONE',  ( 0.000000000000000000, 0.000000000000000000, 1.000000000000000000 ) ) ;
#230 = CARTESIAN_POINT ( 'NONE',  ( -30.00000000000000000, 5.098838687596501826E-15, 0.000000000000000000 ) ) ;
#231 = CYLINDRICAL_SURFACE ( 'NONE', #152, 5.499999999999998224 ) ;
#232 = LINE ( 'NONE', #130, #87 ) ;
#233 = CARTESIAN_POINT ( 'NONE',  ( 40.00000000000001421, 15.00000000000000178, 0.000000000000000000 ) ) ;
#234 = ORIENTED_EDGE ( 'NONE', *, *, #316, .T. ) ;
#235 = AXIS2_PLACEMENT_3D ( 'NONE', #123, #229, #268 ) ;
#236 = EDGE_CURVE ( 'NONE', #189, #217, #328, .T. ) ;
#237 = ORIENTED_EDGE ( 'NONE', *, *, #278, .F. ) ;
#238 = EDGE_LOOP ( 'NONE', ( #346, #291, #261, #191 ) ) ;
#239 = CARTESIAN_POINT ( 'NONE',  ( 40.00000000000001421, 15.00000000000000178, 25.00000000000000000 ) ) ;
#240 =( GEOMETRIC_REPRESENTATION_CONTEXT ( 3 ) GLOBAL_UNCERTAINTY_ASSIGNED_CONTEXT ( ( #166 ) ) GLOBAL_UNIT_ASSIGNED_CONTEXT ( ( #58, #342, #85 ) ) REPRESENTATION_CONTEXT ( 'NONE', 'WORKASPACE' ) );
#241 = VECTOR ( 'NONE', #142, 1000.000000000000000 ) ;
#242 = FACE_OUTER_BOUND ( 'NONE', #238, .T. ) ;
#243 = VERTEX_POINT ( 'NONE', #309 ) ;
#244 = DIRECTION ( 'NONE',  ( 1.000000000000000000, 0.000000000000000000, 0.000000000000000000 ) ) ;
#245 = AXIS2_PLACEMENT_3D ( 'NONE', #168, #88, #296 ) ;
#246 = CARTESIAN_POINT ( 'NONE',  ( 30.00000000000000000, 1.612065987992267542E-14, 0.000000000000000000 ) ) ;
#247 = ORIENTED_EDGE ( 'NONE', *, *, #322, .F. ) ;
#248 = AXIS2_PLACEMENT_3D ( 'NONE', #9, #153, #158 ) ;
#249 = CARTESIAN_POINT ( 'NONE',  ( 40.00000000000000711, -14.99999999999999822, 0.000000000000000000 ) ) ;
#250 = CARTESIAN_POINT ( 'NONE',  ( -39.99999999999998579, 15.00000000000000178, 0.000000000000000000 ) ) ;
#251 = DIRECTION ( 'NONE',  ( 2.312964634635742957E-16, 1.000000000000000000, -0.000000000000000000 ) ) ;
#252 = VECTOR ( 'NONE', #254, 1000.000000000000000 ) ;
#253 = FACE_BOUND ( 'NONE', #86, .T. ) ;
#254 = DIRECTION ( 'NONE',  ( 1.000000000000000000, -2.168404344971009176E-17, 0.000000000000000000 ) ) ;
#255 = CARTESIAN_POINT ( 'NONE',  ( -39.99999999999998579, 15.00000000000000178, 25.00000000000000000 ) ) ;
#256 = CARTESIAN_POINT ( 'NONE',  ( 40.00000000000000711, -14.99999999999999822, 25.00000000000000000 ) ) ;
#257 = EDGE_CURVE ( 'NONE', #145, #138, #40, .T. ) ;
#258 =( NAMED_UNIT ( * ) SI_UNIT ( $, .STERADIAN. ) SOLID_ANGLE_UNIT ( ) );
#259 = MECHANICAL_DESIGN_GEOMETRIC_PRESENTATION_REPRESENTATION (  '', ( #66 ), #240 ) ;
#260 = SURFACE_STYLE_FILL_AREA ( #53 ) ;
#261 = ORIENTED_EDGE ( 'NONE', *, *, #316, .F. ) ;
#262 = CIRCLE ( 'NONE', #310, 5.499999999999998224 ) ;
#263 = EDGE_LOOP ( 'NONE', ( #213, #3 ) ) ;
#264 = FACE_BOUND ( 'NONE', #315, .T. ) ;
#265 = ORIENTED_EDGE ( 'NONE', *, *, #236, .F. ) ;
#266 = EDGE_CURVE ( 'NONE', #23, #243, #285, .T. ) ;
#267 = AXIS2_PLACEMENT_3D ( 'NONE', #31, #69, #302 ) ;
#268 = DIRECTION ( 'NONE',  ( 1.000000000000000000, 0.000000000000000000, 0.000000000000000000 ) ) ;
#269 = EDGE_LOOP ( 'NONE', ( #83, #43, #140, #247 ) ) ;
#270 = CARTESIAN_POINT ( 'NONE',  ( 24.50000000000000000, 1.612065987992267542E-14, 25.00000000000000000 ) ) ;
#271 = VECTOR ( 'NONE', #324, 1000.000000000000000 ) ;
#272 = PLANE ( 'NONE',  #334 ) ;
#273 = EDGE_LOOP ( 'NONE', ( #301, #348 ) ) ;
#274 = COLOUR_RGB ( '',0.7921568627450980005, 0.8196078431372548767, 0.9333333333333333481 ) ;
#275 = PLANE ( 'NONE',  #319 ) ;
#276 = DIRECTION ( 'NONE',  ( -0.000000000000000000, -0.000000000000000000, -1.000000000000000000 ) ) ;
#277 = DIRECTION ( 'NONE',  ( -0.000000000000000000, -0.000000000000000000, -1.000000000000000000 ) ) ;
#278 = EDGE_CURVE ( 'NONE', #331, #145, #232, .T. ) ;
#279 = DIRECTION ( 'NONE',  ( 1.000000000000000000, 0.000000000000000000, 0.000000000000000000 ) ) ;
#280 = PRODUCT_CONTEXT ( 'NONE', #77, 'mechanical' ) ;
#281 = PLANE ( 'NONE',  #248 ) ;
#282 = ORIENTED_EDGE ( 'NONE', *, *, #266, .T. ) ;
#283 = PRESENTATION_STYLE_ASSIGNMENT (( #333 ) ) ;
#284 = ORIENTED_EDGE ( 'NONE', *, *, #266, .F. ) ;
#285 = CIRCLE ( 'NONE', #193, 5.499999999999998224 ) ;
#286 = ORIENTED_EDGE ( 'NONE', *, *, #113, .T. ) ;
#287 = UNCERTAINTY_MEASURE_WITH_UNIT (LENGTH_MEASURE( 1.000000000000000082E-05 ), #79, 'distance_accuracy_value', 'NONE');
#288 = LINE ( 'NONE', #24, #39 ) ;
#289 = EDGE_LOOP ( 'NONE', ( #12, #286, #219, #350 ) ) ;
#290 = EDGE_CURVE ( 'NONE', #134, #104, #292, .T. ) ;
#291 = ORIENTED_EDGE ( 'NONE', *, *, #49, .F. ) ;
#292 = CIRCLE ( 'NONE', #141, 5.499999999999998224 ) ;
#293 = CYLINDRICAL_SURFACE ( 'NONE', #245, 5.499999999999998224 ) ;
#294 = EDGE_LOOP ( 'NONE', ( #326, #337, #108, #314 ) ) ;
#295 = ADVANCED_FACE ( 'NONE', ( #72, #180, #253 ), #281, .T. ) ;
#296 = DIRECTION ( 'NONE',  ( -1.000000000000000000, 0.000000000000000000, 0.000000000000000000 ) ) ;
#297 = DIRECTION ( 'NONE',  ( 1.000000000000000000, 0.000000000000000000, 0.000000000000000000 ) ) ;
#298 = VECTOR ( 'NONE', #50, 1000.000000000000000 ) ;
#299 = ADVANCED_BREP_SHAPE_REPRESENTATION ( 'tendeur', ( #52, #125 ), #199 ) ;
#300 = FACE_OUTER_BOUND ( 'NONE', #143, .T. ) ;
#301 = ORIENTED_EDGE ( 'NONE', *, *, #98, .T. ) ;
#302 = DIRECTION ( 'NONE',  ( -1.000000000000000000, 0.000000000000000000, 0.000000000000000000 ) ) ;
#303 = VERTEX_POINT ( 'NONE', #128 ) ;
#304 = PRODUCT_DEFINITION_SHAPE ( 'NONE', 'NONE',  #335 ) ;
#305 = DIRECTION ( 'NONE',  ( 2.168404344971009176E-17, 1.000000000000000000, -0.000000000000000000 ) ) ;
#306 = VECTOR ( 'NONE', #330, 1000.000000000000000 ) ;
#307 = CYLINDRICAL_SURFACE ( 'NONE', #161, 5.499999999999998224 ) ;
#308 = DIRECTION ( 'NONE',  ( 1.000000000000000000, 0.000000000000000000, 0.000000000000000000 ) ) ;
#309 = CARTESIAN_POINT ( 'NONE',  ( -24.50000000000000000, 5.772394427127545141E-15, 0.000000000000000000 ) ) ;
#310 = AXIS2_PLACEMENT_3D ( 'NONE', #10, #46, #215 ) ;
#311 =( NAMED_UNIT ( * ) PLANE_ANGLE_UNIT ( ) SI_UNIT ( $, .RADIAN. ) );
#312 = CARTESIAN_POINT ( 'NONE',  ( 0.000000000000000000, 0.000000000000000000, 0.000000000000000000 ) ) ;
#313 = PRODUCT_DEFINITION_CONTEXT ( 'detailed design', #202, 'design' ) ;
#314 = ORIENTED_EDGE ( 'NONE', *, *, #278, .T. ) ;
#315 = EDGE_LOOP ( 'NONE', ( #282, #28 ) ) ;
#316 = EDGE_CURVE ( 'NONE', #186, #81, #102, .T. ) ;
#317 = FACE_BOUND ( 'NONE', #273, .T. ) ;
#318 = LINE ( 'NONE', #270, #21 ) ;
#319 = AXIS2_PLACEMENT_3D ( 'NONE', #146, #172, #95 ) ;
#320 = CARTESIAN_POINT ( 'NONE',  ( -35.50000000000000000, 5.098838687596501826E-15, 25.00000000000000000 ) ) ;
#321 = ORIENTED_EDGE ( 'NONE', *, *, #16, .T. ) ;
#322 = EDGE_CURVE ( 'NONE', #138, #101, #37, .T. ) ;
#323 = CARTESIAN_POINT ( 'NONE',  ( 40.00000000000001421, 15.00000000000000178, 0.000000000000000000 ) ) ;
#324 = DIRECTION ( 'NONE',  ( 2.312964634635742957E-16, -1.000000000000000000, 0.000000000000000000 ) ) ;
#325 = DIRECTION ( 'NONE',  ( 1.000000000000000000, 0.000000000000000000, 0.000000000000000000 ) ) ;
#326 = ORIENTED_EDGE ( 'NONE', *, *, #257, .T. ) ;
#327 = EDGE_CURVE ( 'NONE', #243, #23, #262, .T. ) ;
#328 = LINE ( 'NONE', #8, #112 ) ;
#329 = FACE_OUTER_BOUND ( 'NONE', #269, .T. ) ;
#330 = DIRECTION ( 'NONE',  ( -1.000000000000000000, -0.000000000000000000, -0.000000000000000000 ) ) ;
#331 = VERTEX_POINT ( 'NONE', #256 ) ;
#332 = CARTESIAN_POINT ( 'NONE',  ( 40.00000000000001421, 15.00000000000000178, 25.00000000000000000 ) ) ;
#333 = SURFACE_STYLE_USAGE ( .BOTH. , #336 ) ;
#334 = AXIS2_PLACEMENT_3D ( 'NONE', #32, #305, #126 ) ;
#335 = PRODUCT_DEFINITION ( 'UNKNOWN', '', #91, #313 ) ;
#336 = SURFACE_SIDE_STYLE ('',( #17 ) ) ;
#337 = ORIENTED_EDGE ( 'NONE', *, *, #73, .F. ) ;
#338 = VECTOR ( 'NONE', #206, 1000.000000000000000 ) ;
#339 = VECTOR ( 'NONE', #224, 1000.000000000000000 ) ;
#340 = DIRECTION ( 'NONE',  ( -2.312964634635743450E-16, -1.000000000000000000, 0.000000000000000000 ) ) ;
#341 = EDGE_CURVE ( 'NONE', #189, #331, #132, .T. ) ;
#342 =( NAMED_UNIT ( * ) PLANE_ANGLE_UNIT ( ) SI_UNIT ( $, .RADIAN. ) );
#343 = EDGE_LOOP ( 'NONE', ( #51, #237, #147, #165 ) ) ;
#344 = EDGE_CURVE ( 'NONE', #81, #189, #129, .T. ) ;
#345 = FACE_OUTER_BOUND ( 'NONE', #294, .T. ) ;
#346 = ORIENTED_EDGE ( 'NONE', *, *, #322, .T. ) ;
#347 =( GEOMETRIC_REPRESENTATION_CONTEXT ( 3 ) GLOBAL_UNCERTAINTY_ASSIGNED_CONTEXT ( ( #287 ) ) GLOBAL_UNIT_ASSIGNED_CONTEXT ( ( #79, #311, #258 ) ) REPRESENTATION_CONTEXT ( 'NONE', 'WORKASPACE' ) );
#348 = ORIENTED_EDGE ( 'NONE', *, *, #167, .T. ) ;
#349 = LINE ( 'NONE', #250, #271 ) ;
#350 = ORIENTED_EDGE ( 'NONE', *, *, #327, .F. ) ;
ENDSEC;
END-ISO-10303-21;
