ISO-10303-21;
HEADER;
FILE_DESCRIPTION(('CATIA V6 STEP','CAx-IF Rec.Pracs.--- Model Styling and Organization---1.5--- 2016-08-15','CAx-IF Rec.Pracs.---Supplemental Geometry---1.0---2011-11-01','CAx-IF Rec.Pracs.--- Composite Materials ---3.4---2017-06-13','CAx-IF Rec.Pracs.---Tessellated 3D Geometry---1.0---2015-12-17'),'2;1');

FILE_NAME('\\\\?\\H:\\MATT\\4GM\\S2\\COPR\\COPRS2_soudure_rond_etire A.1.stp','2023-05-23T14:22:23+00:00',('none'),('none'),'3DEXPERIENCE Platform3DEXPERIENCE R2020x HotFix 18','3DEXPERIENCE Platform STEP AP242 v1','none');

FILE_SCHEMA(('AP242_MANAGED_MODEL_BASED_3D_ENGINEERING_MIM_LF  {1 0 10303 442 1 1 4}'));

ENDSEC;
DATA;
#19=PRODUCT('COPRS2_soudure_rond_etire','COPRS2_soudure_rond_etire','',(#2)) ;
#32=PRODUCT('COPRS2_rond_etire_25','COPRS2_rond_etire_25','',(#2)) ;
#45=PRODUCT('COPRS2_rond_etire_80','COPRS2_rond_etire_80','',(#2)) ;
#2=PRODUCT_CONTEXT(' ',#1,'mechanical') ;
#1=APPLICATION_CONTEXT('managed model based 3d engineering') ;
#21=PRODUCT_DEFINITION('COPRS2_soudure_rond_etire',' ',#20,#3) ;
#34=PRODUCT_DEFINITION('COPRS2_rond_etire_25',' ',#33,#3) ;
#47=PRODUCT_DEFINITION('COPRS2_rond_etire_80',' ',#46,#3) ;
#3=PRODUCT_DEFINITION_CONTEXT('part definition',#1,' ') ;
#22=PRODUCT_DEFINITION_SHAPE(' ',' ',#21) ;
#35=PRODUCT_DEFINITION_SHAPE(' ',' ',#34) ;
#48=PRODUCT_DEFINITION_SHAPE(' ',' ',#47) ;
#61=PRODUCT_DEFINITION_SHAPE(' ',' ',#58) ;
#74=PRODUCT_DEFINITION_SHAPE(' ',' ',#71) ;
#234=MECHANICAL_DESIGN_GEOMETRIC_PRESENTATION_REPRESENTATION(' ',(#84),#28) ;
#322=MECHANICAL_DESIGN_GEOMETRIC_PRESENTATION_REPRESENTATION(' ',(#243),#41) ;
#5=PRODUCT_CATEGORY('part','specification') ;
#16=PRODUCT_CATEGORY('part','specification') ;
#13=SHAPE_REPRESENTATION(' ',(#15,#56,#69),#12) ;
#29=SHAPE_REPRESENTATION(' ',(#31,#57,#76),#28) ;
#42=SHAPE_REPRESENTATION(' ',(#44,#70,#235),#41) ;
#14=CARTESIAN_POINT('',(0.,0.,0.)) ;
#30=CARTESIAN_POINT('',(0.,0.,0.)) ;
#43=CARTESIAN_POINT('',(0.,0.,0.)) ;
#50=CARTESIAN_POINT('NONE',(0.,0.,0.)) ;
#51=CARTESIAN_POINT('NONE',(-20.0920558917,60.8684733281,-13.532872047)) ;
#63=CARTESIAN_POINT('NONE',(0.,0.,0.)) ;
#64=CARTESIAN_POINT('NONE',(-20.0920558917,40.8684733281,-13.532872047)) ;
#86=CARTESIAN_POINT('Axis2P3D Location',(0.,217.5,0.)) ;
#91=CARTESIAN_POINT('Line Origine',(-5.,217.5,0.)) ;
#95=CARTESIAN_POINT('Vertex',(-5.,200.,0.)) ;
#97=CARTESIAN_POINT('Vertex',(-5.,235.,0.)) ;
#100=CARTESIAN_POINT('Axis2P3D Location',(0.,200.,0.)) ;
#104=CARTESIAN_POINT('Vertex',(5.,200.,6.12323399574E-16)) ;
#107=CARTESIAN_POINT('Line Origine',(5.,217.5,6.12323399574E-16)) ;
#111=CARTESIAN_POINT('Vertex',(5.,235.,6.12323399574E-16)) ;
#114=CARTESIAN_POINT('Axis2P3D Location',(0.,235.,0.)) ;
#126=CARTESIAN_POINT('Axis2P3D Location',(0.,200.,0.)) ;
#131=CARTESIAN_POINT('Axis2P3D Location',(0.,235.,0.)) ;
#143=CARTESIAN_POINT('Axis2P3D Location',(0.,235.,0.)) ;
#153=CARTESIAN_POINT('Axis2P3D Location',(0.,200.,0.)) ;
#158=CARTESIAN_POINT('Axis2P3D Location',(0.,200.,0.)) ;
#162=CARTESIAN_POINT('Vertex',(-12.5,200.,0.)) ;
#164=CARTESIAN_POINT('Vertex',(12.5,200.,-4.02030662419E-15)) ;
#167=CARTESIAN_POINT('Axis2P3D Location',(0.,200.,0.)) ;
#181=CARTESIAN_POINT('Axis2P3D Location',(0.,0.,0.)) ;
#186=CARTESIAN_POINT('Axis2P3D Location',(0.,0.,0.)) ;
#190=CARTESIAN_POINT('Vertex',(12.5,0.,-4.02030662419E-15)) ;
#192=CARTESIAN_POINT('Vertex',(-12.5,0.,0.)) ;
#195=CARTESIAN_POINT('Axis2P3D Location',(0.,0.,0.)) ;
#205=CARTESIAN_POINT('Axis2P3D Location',(0.,100.,0.)) ;
#210=CARTESIAN_POINT('Line Origine',(12.5,100.,-4.02030662419E-15)) ;
#215=CARTESIAN_POINT('Line Origine',(-12.5,100.,8.04061324838E-15)) ;
#245=CARTESIAN_POINT('Axis2P3D Location',(0.,-65.,0.)) ;
#250=CARTESIAN_POINT('Line Origine',(-40.,-65.,0.)) ;
#254=CARTESIAN_POINT('Vertex',(-40.,-150.,0.)) ;
#256=CARTESIAN_POINT('Vertex',(-40.,20.,0.)) ;
#259=CARTESIAN_POINT('Axis2P3D Location',(0.,-150.,0.)) ;
#263=CARTESIAN_POINT('Vertex',(40.,-150.,4.89858719659E-15)) ;
#266=CARTESIAN_POINT('Line Origine',(40.,-65.,4.89858719659E-15)) ;
#270=CARTESIAN_POINT('Vertex',(40.,20.,4.89858719659E-15)) ;
#273=CARTESIAN_POINT('Axis2P3D Location',(0.,20.,0.)) ;
#285=CARTESIAN_POINT('Axis2P3D Location',(0.,-150.,0.)) ;
#290=CARTESIAN_POINT('Axis2P3D Location',(0.,20.,0.)) ;
#302=CARTESIAN_POINT('Axis2P3D Location',(0.,-150.,0.)) ;
#312=CARTESIAN_POINT('Axis2P3D Location',(0.,20.,0.)) ;
#6=PRODUCT_RELATED_PRODUCT_CATEGORY('part',$,(#32,#45)) ;
#17=PRODUCT_RELATED_PRODUCT_CATEGORY('part',$,(#19)) ;
#11=UNCERTAINTY_MEASURE_WITH_UNIT(LENGTH_MEASURE(0.005),#8,'distance_accuracy_value','CONFUSED CURVE UNCERTAINTY') ;
#27=UNCERTAINTY_MEASURE_WITH_UNIT(LENGTH_MEASURE(0.005),#24,'distance_accuracy_value','CONFUSED CURVE UNCERTAINTY') ;
#40=UNCERTAINTY_MEASURE_WITH_UNIT(LENGTH_MEASURE(0.005),#37,'distance_accuracy_value','CONFUSED CURVE UNCERTAINTY') ;
#59=ITEM_DEFINED_TRANSFORMATION(' ',' ',#57,#56) ;
#72=ITEM_DEFINED_TRANSFORMATION(' ',' ',#70,#69) ;
#84=STYLED_ITEM(' ',(#83),#76) ;
#243=STYLED_ITEM(' ',(#242),#235) ;
#83=PRESENTATION_STYLE_ASSIGNMENT((#82)) ;
#242=PRESENTATION_STYLE_ASSIGNMENT((#241)) ;
#82=SURFACE_STYLE_USAGE(.BOTH.,#81) ;
#241=SURFACE_STYLE_USAGE(.BOTH.,#240) ;
#81=SURFACE_SIDE_STYLE(' ',(#80)) ;
#240=SURFACE_SIDE_STYLE(' ',(#239)) ;
#80=SURFACE_STYLE_FILL_AREA(#79) ;
#239=SURFACE_STYLE_FILL_AREA(#238) ;
#79=FILL_AREA_STYLE(' ',(#78)) ;
#238=FILL_AREA_STYLE(' ',(#237)) ;
#78=FILL_AREA_STYLE_COLOUR(' ',#77) ;
#237=FILL_AREA_STYLE_COLOUR(' ',#236) ;
#93=VECTOR('Line Direction',#92,1.) ;
#109=VECTOR('Line Direction',#108,1.) ;
#212=VECTOR('Line Direction',#211,1.) ;
#217=VECTOR('Line Direction',#216,1.) ;
#252=VECTOR('Line Direction',#251,1.) ;
#268=VECTOR('Line Direction',#267,1.) ;
#52=DIRECTION('NONE',(1.,0.,0.)) ;
#53=DIRECTION('NONE',(0.,0.,1.)) ;
#54=DIRECTION('NONE',(1.,0.,0.)) ;
#55=DIRECTION('NONE',(0.,0.,1.)) ;
#65=DIRECTION('NONE',(1.,0.,0.)) ;
#66=DIRECTION('NONE',(0.,0.,1.)) ;
#67=DIRECTION('NONE',(1.,0.,0.)) ;
#68=DIRECTION('NONE',(0.,0.,1.)) ;
#87=DIRECTION('Axis2P3D Direction',(0.,1.,0.)) ;
#88=DIRECTION('Axis2P3D XDirection',(-1.,0.,0.)) ;
#92=DIRECTION('Vector Direction',(0.,1.,0.)) ;
#101=DIRECTION('Axis2P3D Direction',(0.,1.,0.)) ;
#108=DIRECTION('Vector Direction',(0.,1.,0.)) ;
#115=DIRECTION('Axis2P3D Direction',(0.,1.,0.)) ;
#127=DIRECTION('Axis2P3D Direction',(0.,1.,0.)) ;
#132=DIRECTION('Axis2P3D Direction',(0.,1.,0.)) ;
#144=DIRECTION('Axis2P3D Direction',(0.,1.,0.)) ;
#145=DIRECTION('Axis2P3D XDirection',(-1.,0.,0.)) ;
#154=DIRECTION('Axis2P3D Direction',(0.,1.,0.)) ;
#155=DIRECTION('Axis2P3D XDirection',(-1.,0.,0.)) ;
#159=DIRECTION('Axis2P3D Direction',(0.,1.,0.)) ;
#168=DIRECTION('Axis2P3D Direction',(0.,1.,0.)) ;
#182=DIRECTION('Axis2P3D Direction',(0.,1.,0.)) ;
#183=DIRECTION('Axis2P3D XDirection',(-1.,0.,0.)) ;
#187=DIRECTION('Axis2P3D Direction',(0.,1.,0.)) ;
#196=DIRECTION('Axis2P3D Direction',(0.,1.,0.)) ;
#206=DIRECTION('Axis2P3D Direction',(0.,1.,0.)) ;
#207=DIRECTION('Axis2P3D XDirection',(-1.,0.,0.)) ;
#211=DIRECTION('Vector Direction',(0.,1.,0.)) ;
#216=DIRECTION('Vector Direction',(0.,1.,0.)) ;
#246=DIRECTION('Axis2P3D Direction',(0.,1.,0.)) ;
#247=DIRECTION('Axis2P3D XDirection',(-1.,0.,0.)) ;
#251=DIRECTION('Vector Direction',(0.,1.,0.)) ;
#260=DIRECTION('Axis2P3D Direction',(0.,1.,0.)) ;
#267=DIRECTION('Vector Direction',(0.,1.,0.)) ;
#274=DIRECTION('Axis2P3D Direction',(0.,1.,0.)) ;
#286=DIRECTION('Axis2P3D Direction',(0.,1.,0.)) ;
#291=DIRECTION('Axis2P3D Direction',(0.,1.,0.)) ;
#303=DIRECTION('Axis2P3D Direction',(0.,1.,0.)) ;
#304=DIRECTION('Axis2P3D XDirection',(-1.,0.,0.)) ;
#313=DIRECTION('Axis2P3D Direction',(0.,1.,0.)) ;
#314=DIRECTION('Axis2P3D XDirection',(-1.,0.,0.)) ;
#62=CONTEXT_DEPENDENT_SHAPE_REPRESENTATION(#60,#61) ;
#75=CONTEXT_DEPENDENT_SHAPE_REPRESENTATION(#73,#74) ;
#15=AXIS2_PLACEMENT_3D('',#14,$,$) ;
#31=AXIS2_PLACEMENT_3D('',#30,$,$) ;
#44=AXIS2_PLACEMENT_3D('',#43,$,$) ;
#56=AXIS2_PLACEMENT_3D(' ',#51,#55,#54) ;
#57=AXIS2_PLACEMENT_3D(' ',#50,#53,#52) ;
#69=AXIS2_PLACEMENT_3D(' ',#64,#68,#67) ;
#70=AXIS2_PLACEMENT_3D(' ',#63,#66,#65) ;
#89=AXIS2_PLACEMENT_3D('Cylinder Axis2P3D',#86,#87,#88) ;
#102=AXIS2_PLACEMENT_3D('Circle Axis2P3D',#100,#101,$) ;
#116=AXIS2_PLACEMENT_3D('Circle Axis2P3D',#114,#115,$) ;
#128=AXIS2_PLACEMENT_3D('Circle Axis2P3D',#126,#127,$) ;
#133=AXIS2_PLACEMENT_3D('Circle Axis2P3D',#131,#132,$) ;
#146=AXIS2_PLACEMENT_3D('Plane Axis2P3D',#143,#144,#145) ;
#156=AXIS2_PLACEMENT_3D('Plane Axis2P3D',#153,#154,#155) ;
#160=AXIS2_PLACEMENT_3D('Circle Axis2P3D',#158,#159,$) ;
#169=AXIS2_PLACEMENT_3D('Circle Axis2P3D',#167,#168,$) ;
#184=AXIS2_PLACEMENT_3D('Plane Axis2P3D',#181,#182,#183) ;
#188=AXIS2_PLACEMENT_3D('Circle Axis2P3D',#186,#187,$) ;
#197=AXIS2_PLACEMENT_3D('Circle Axis2P3D',#195,#196,$) ;
#208=AXIS2_PLACEMENT_3D('Cylinder Axis2P3D',#205,#206,#207) ;
#248=AXIS2_PLACEMENT_3D('Cylinder Axis2P3D',#245,#246,#247) ;
#261=AXIS2_PLACEMENT_3D('Circle Axis2P3D',#259,#260,$) ;
#275=AXIS2_PLACEMENT_3D('Circle Axis2P3D',#273,#274,$) ;
#287=AXIS2_PLACEMENT_3D('Circle Axis2P3D',#285,#286,$) ;
#292=AXIS2_PLACEMENT_3D('Circle Axis2P3D',#290,#291,$) ;
#305=AXIS2_PLACEMENT_3D('Plane Axis2P3D',#302,#303,#304) ;
#315=AXIS2_PLACEMENT_3D('Plane Axis2P3D',#312,#313,#314) ;
#94=LINE('Line',#91,#93) ;
#110=LINE('Line',#107,#109) ;
#213=LINE('Line',#210,#212) ;
#218=LINE('Line',#215,#217) ;
#253=LINE('Line',#250,#252) ;
#269=LINE('Line',#266,#268) ;
#103=CIRCLE('generated circle',#102,5.) ;
#117=CIRCLE('generated circle',#116,5.) ;
#129=CIRCLE('generated circle',#128,5.) ;
#134=CIRCLE('generated circle',#133,5.) ;
#161=CIRCLE('generated circle',#160,12.5) ;
#170=CIRCLE('generated circle',#169,12.5) ;
#189=CIRCLE('generated circle',#188,12.5) ;
#198=CIRCLE('generated circle',#197,12.5) ;
#262=CIRCLE('generated circle',#261,40.) ;
#276=CIRCLE('generated circle',#275,40.) ;
#288=CIRCLE('generated circle',#287,40.) ;
#293=CIRCLE('generated circle',#292,40.) ;
#147=PLANE('',#146) ;
#157=PLANE('',#156) ;
#185=PLANE('',#184) ;
#306=PLANE('',#305) ;
#316=PLANE('',#315) ;
#90=CYLINDRICAL_SURFACE('generated cylinder',#89,5.) ;
#209=CYLINDRICAL_SURFACE('generated cylinder',#208,12.5) ;
#249=CYLINDRICAL_SURFACE('generated cylinder',#248,40.) ;
#179=FACE_BOUND('',#176,.T.) ;
#99=EDGE_CURVE('',#96,#98,#94,.T.) ;
#106=EDGE_CURVE('',#96,#105,#103,.T.) ;
#113=EDGE_CURVE('',#105,#112,#110,.T.) ;
#118=EDGE_CURVE('',#98,#112,#117,.T.) ;
#130=EDGE_CURVE('',#105,#96,#129,.T.) ;
#135=EDGE_CURVE('',#112,#98,#134,.T.) ;
#166=EDGE_CURVE('',#163,#165,#161,.T.) ;
#171=EDGE_CURVE('',#165,#163,#170,.T.) ;
#194=EDGE_CURVE('',#191,#193,#189,.T.) ;
#199=EDGE_CURVE('',#193,#191,#198,.T.) ;
#214=EDGE_CURVE('',#191,#165,#213,.T.) ;
#219=EDGE_CURVE('',#193,#163,#218,.T.) ;
#258=EDGE_CURVE('',#255,#257,#253,.T.) ;
#265=EDGE_CURVE('',#255,#264,#262,.T.) ;
#272=EDGE_CURVE('',#264,#271,#269,.T.) ;
#277=EDGE_CURVE('',#257,#271,#276,.T.) ;
#289=EDGE_CURVE('',#264,#255,#288,.T.) ;
#294=EDGE_CURVE('',#271,#257,#293,.T.) ;
#85=CLOSED_SHELL('Closed Shell',(#125,#142,#152,#180,#204,#226,#233)) ;
#244=CLOSED_SHELL('Closed Shell',(#284,#301,#311,#321)) ;
#120=ORIENTED_EDGE('',*,*,#99,.F.) ;
#121=ORIENTED_EDGE('',*,*,#106,.T.) ;
#122=ORIENTED_EDGE('',*,*,#113,.T.) ;
#123=ORIENTED_EDGE('',*,*,#118,.F.) ;
#137=ORIENTED_EDGE('',*,*,#113,.F.) ;
#138=ORIENTED_EDGE('',*,*,#130,.T.) ;
#139=ORIENTED_EDGE('',*,*,#99,.T.) ;
#140=ORIENTED_EDGE('',*,*,#135,.F.) ;
#149=ORIENTED_EDGE('',*,*,#118,.T.) ;
#150=ORIENTED_EDGE('',*,*,#135,.T.) ;
#173=ORIENTED_EDGE('',*,*,#166,.T.) ;
#174=ORIENTED_EDGE('',*,*,#171,.T.) ;
#177=ORIENTED_EDGE('',*,*,#106,.F.) ;
#178=ORIENTED_EDGE('',*,*,#130,.F.) ;
#201=ORIENTED_EDGE('',*,*,#194,.F.) ;
#202=ORIENTED_EDGE('',*,*,#199,.F.) ;
#221=ORIENTED_EDGE('',*,*,#214,.F.) ;
#222=ORIENTED_EDGE('',*,*,#194,.T.) ;
#223=ORIENTED_EDGE('',*,*,#219,.T.) ;
#224=ORIENTED_EDGE('',*,*,#171,.F.) ;
#228=ORIENTED_EDGE('',*,*,#219,.F.) ;
#229=ORIENTED_EDGE('',*,*,#199,.T.) ;
#230=ORIENTED_EDGE('',*,*,#214,.T.) ;
#231=ORIENTED_EDGE('',*,*,#166,.F.) ;
#279=ORIENTED_EDGE('',*,*,#258,.F.) ;
#280=ORIENTED_EDGE('',*,*,#265,.T.) ;
#281=ORIENTED_EDGE('',*,*,#272,.T.) ;
#282=ORIENTED_EDGE('',*,*,#277,.F.) ;
#296=ORIENTED_EDGE('',*,*,#272,.F.) ;
#297=ORIENTED_EDGE('',*,*,#289,.T.) ;
#298=ORIENTED_EDGE('',*,*,#258,.T.) ;
#299=ORIENTED_EDGE('',*,*,#294,.F.) ;
#308=ORIENTED_EDGE('',*,*,#289,.F.) ;
#309=ORIENTED_EDGE('',*,*,#265,.F.) ;
#318=ORIENTED_EDGE('',*,*,#277,.T.) ;
#319=ORIENTED_EDGE('',*,*,#294,.T.) ;
#119=EDGE_LOOP('',(#120,#121,#122,#123)) ;
#136=EDGE_LOOP('',(#137,#138,#139,#140)) ;
#148=EDGE_LOOP('',(#149,#150)) ;
#172=EDGE_LOOP('',(#173,#174)) ;
#176=EDGE_LOOP('',(#177,#178)) ;
#200=EDGE_LOOP('',(#201,#202)) ;
#220=EDGE_LOOP('',(#221,#222,#223,#224)) ;
#227=EDGE_LOOP('',(#228,#229,#230,#231)) ;
#278=EDGE_LOOP('',(#279,#280,#281,#282)) ;
#295=EDGE_LOOP('',(#296,#297,#298,#299)) ;
#307=EDGE_LOOP('',(#308,#309)) ;
#317=EDGE_LOOP('',(#318,#319)) ;
#76=MANIFOLD_SOLID_BREP('Corps principal',#85) ;
#235=MANIFOLD_SOLID_BREP('Corps principal',#244) ;
#96=VERTEX_POINT('',#95) ;
#98=VERTEX_POINT('',#97) ;
#105=VERTEX_POINT('',#104) ;
#112=VERTEX_POINT('',#111) ;
#163=VERTEX_POINT('',#162) ;
#165=VERTEX_POINT('',#164) ;
#191=VERTEX_POINT('',#190) ;
#193=VERTEX_POINT('',#192) ;
#255=VERTEX_POINT('',#254) ;
#257=VERTEX_POINT('',#256) ;
#264=VERTEX_POINT('',#263) ;
#271=VERTEX_POINT('',#270) ;
#58=NEXT_ASSEMBLY_USAGE_OCCURRENCE('COPRS2_rond_etire_25.1','','',#21,#34,'') ;
#71=NEXT_ASSEMBLY_USAGE_OCCURRENCE('COPRS2_rond_etire_80.1','','',#21,#47,'') ;
#125=ADVANCED_FACE('Corps principal',(#124),#90,.T.) ;
#142=ADVANCED_FACE('Corps principal',(#141),#90,.T.) ;
#152=ADVANCED_FACE('Corps principal',(#151),#147,.T.) ;
#180=ADVANCED_FACE('Corps principal',(#175,#179),#157,.T.) ;
#204=ADVANCED_FACE('Corps principal',(#203),#185,.F.) ;
#226=ADVANCED_FACE('Corps principal',(#225),#209,.T.) ;
#233=ADVANCED_FACE('Corps principal',(#232),#209,.T.) ;
#284=ADVANCED_FACE('Corps principal',(#283),#249,.T.) ;
#301=ADVANCED_FACE('Corps principal',(#300),#249,.T.) ;
#311=ADVANCED_FACE('Corps principal',(#310),#306,.F.) ;
#321=ADVANCED_FACE('Corps principal',(#320),#316,.T.) ;
#4=APPLICATION_PROTOCOL_DEFINITION('international standard','ap242_managed_model_based_3d_engineering',2014,#1) ;
#77=COLOUR_RGB('Colour',0.882352941176,0.882352941176,0.882352941176) ;
#236=COLOUR_RGB('Colour',0.882352941176,0.882352941176,0.882352941176) ;
#124=FACE_OUTER_BOUND('',#119,.T.) ;
#141=FACE_OUTER_BOUND('',#136,.T.) ;
#151=FACE_OUTER_BOUND('',#148,.T.) ;
#175=FACE_OUTER_BOUND('',#172,.T.) ;
#203=FACE_OUTER_BOUND('',#200,.T.) ;
#225=FACE_OUTER_BOUND('',#220,.T.) ;
#232=FACE_OUTER_BOUND('',#227,.T.) ;
#283=FACE_OUTER_BOUND('',#278,.T.) ;
#300=FACE_OUTER_BOUND('',#295,.T.) ;
#310=FACE_OUTER_BOUND('',#307,.T.) ;
#320=FACE_OUTER_BOUND('',#317,.T.) ;
#7=PRODUCT_CATEGORY_RELATIONSHIP(' ',' ',#5,#6) ;
#18=PRODUCT_CATEGORY_RELATIONSHIP(' ',' ',#16,#17) ;
#20=PRODUCT_DEFINITION_FORMATION_WITH_SPECIFIED_SOURCE('A.1',' ',#19,.NOT_KNOWN.) ;
#33=PRODUCT_DEFINITION_FORMATION_WITH_SPECIFIED_SOURCE('A.1',' ',#32,.NOT_KNOWN.) ;
#46=PRODUCT_DEFINITION_FORMATION_WITH_SPECIFIED_SOURCE('A.1',' ',#45,.NOT_KNOWN.) ;
#23=SHAPE_DEFINITION_REPRESENTATION(#22,#13) ;
#36=SHAPE_DEFINITION_REPRESENTATION(#35,#29) ;
#49=SHAPE_DEFINITION_REPRESENTATION(#48,#42) ;
#8=(LENGTH_UNIT()NAMED_UNIT(*)SI_UNIT(.MILLI.,.METRE.)) ;
#24=(LENGTH_UNIT()NAMED_UNIT(*)SI_UNIT(.MILLI.,.METRE.)) ;
#37=(LENGTH_UNIT()NAMED_UNIT(*)SI_UNIT(.MILLI.,.METRE.)) ;
#9=(NAMED_UNIT(*)PLANE_ANGLE_UNIT()SI_UNIT($,.RADIAN.)) ;
#25=(NAMED_UNIT(*)PLANE_ANGLE_UNIT()SI_UNIT($,.RADIAN.)) ;
#38=(NAMED_UNIT(*)PLANE_ANGLE_UNIT()SI_UNIT($,.RADIAN.)) ;
#10=(NAMED_UNIT(*)SI_UNIT($,.STERADIAN.)SOLID_ANGLE_UNIT()) ;
#26=(NAMED_UNIT(*)SI_UNIT($,.STERADIAN.)SOLID_ANGLE_UNIT()) ;
#39=(NAMED_UNIT(*)SI_UNIT($,.STERADIAN.)SOLID_ANGLE_UNIT()) ;
#12=(GEOMETRIC_REPRESENTATION_CONTEXT(3)GLOBAL_UNCERTAINTY_ASSIGNED_CONTEXT((#11))GLOBAL_UNIT_ASSIGNED_CONTEXT((#8,#9,#10))REPRESENTATION_CONTEXT(' ',' ')) ;
#28=(GEOMETRIC_REPRESENTATION_CONTEXT(3)GLOBAL_UNCERTAINTY_ASSIGNED_CONTEXT((#27))GLOBAL_UNIT_ASSIGNED_CONTEXT((#24,#25,#26))REPRESENTATION_CONTEXT(' ',' ')) ;
#41=(GEOMETRIC_REPRESENTATION_CONTEXT(3)GLOBAL_UNCERTAINTY_ASSIGNED_CONTEXT((#40))GLOBAL_UNIT_ASSIGNED_CONTEXT((#37,#38,#39))REPRESENTATION_CONTEXT(' ',' ')) ;
#60=(REPRESENTATION_RELATIONSHIP(' ',' ',#29,#13)REPRESENTATION_RELATIONSHIP_WITH_TRANSFORMATION(#59)SHAPE_REPRESENTATION_RELATIONSHIP()) ;
#73=(REPRESENTATION_RELATIONSHIP(' ',' ',#42,#13)REPRESENTATION_RELATIONSHIP_WITH_TRANSFORMATION(#72)SHAPE_REPRESENTATION_RELATIONSHIP()) ;
ENDSEC;
END-ISO-10303-21;
