ISO-10303-21;
HEADER;
FILE_DESCRIPTION (( 'STEP AP203' ),
    '1' );
FILE_NAME ('entretoise axe 1.STEP',
    '2023-05-16T14:22:57',
    ( '' ),
    ( '' ),
    'SwSTEP 2.0',
    'SolidWorks 2016',
    '' );
FILE_SCHEMA (( 'CONFIG_CONTROL_DESIGN' ));
ENDSEC;

DATA;
#1 = COORDINATED_UNIVERSAL_TIME_OFFSET ( 1, 0, .AHEAD. ) ;
#2 = VERTEX_POINT ( 'NONE', #209 ) ;
#3 = DATE_AND_TIME ( #52, #161 ) ;
#4 = ORIENTED_EDGE ( 'NONE', *, *, #240, .T. ) ;
#5 = CARTESIAN_POINT ( 'NONE',  ( -2.899999999999999900, 0.0000000000000000000, 0.0000000000000000000 ) ) ;
#6 = CC_DESIGN_APPROVAL ( #36, ( #43 ) ) ;
#7 = AXIS2_PLACEMENT_3D ( 'NONE', #225, #190, #229 ) ;
#8 = CARTESIAN_POINT ( 'NONE',  ( 0.0000000000000000000, 0.0000000000000000000, 45.00000000000000000 ) ) ;
#9 = SECURITY_CLASSIFICATION_LEVEL ( 'unclassified' ) ;
#10 = ORIENTED_EDGE ( 'NONE', *, *, #32, .T. ) ;
#11 = CC_DESIGN_PERSON_AND_ORGANIZATION_ASSIGNMENT ( #173, #12, ( #43 ) ) ;
#12 = PERSON_AND_ORGANIZATION_ROLE ( 'creator' ) ;
#13 = PERSON_AND_ORGANIZATION ( #121, #76 ) ;
#14 = ORIENTED_EDGE ( 'NONE', *, *, #249, .T. ) ;
#15 = DATE_AND_TIME ( #71, #126 ) ;
#16 = ORIENTED_EDGE ( 'NONE', *, *, #207, .T. ) ;
#17 = EDGE_CURVE ( 'NONE', #103, #63, #93, .T. ) ;
#18 = ORIENTED_EDGE ( 'NONE', *, *, #17, .F. ) ;
#19 = COORDINATED_UNIVERSAL_TIME_OFFSET ( 1, 0, .AHEAD. ) ;
#20 = DIRECTION ( 'NONE',  ( 0.0000000000000000000, 0.0000000000000000000, 1.000000000000000000 ) ) ;
#21 = VERTEX_POINT ( 'NONE', #187 ) ;
#22 = CC_DESIGN_PERSON_AND_ORGANIZATION_ASSIGNMENT ( #89, #159, ( #124 ) ) ;
#23 = DIRECTION ( 'NONE',  ( 0.0000000000000000000, 0.0000000000000000000, 1.000000000000000000 ) ) ;
#24 = DIRECTION ( 'NONE',  ( 0.0000000000000000000, 0.0000000000000000000, 1.000000000000000000 ) ) ;
#25 = CARTESIAN_POINT ( 'NONE',  ( 0.0000000000000000000, 0.0000000000000000000, 0.0000000000000000000 ) ) ;
#26 = DIRECTION ( 'NONE',  ( -0.0000000000000000000, -0.0000000000000000000, -1.000000000000000000 ) ) ;
#27 =( NAMED_UNIT ( * ) SI_UNIT ( $, .STERADIAN. ) SOLID_ANGLE_UNIT ( ) );
#28 = EDGE_LOOP ( 'NONE', ( #77, #58 ) ) ;
#29 = FACE_OUTER_BOUND ( 'NONE', #210, .T. ) ;
#30 = DIRECTION ( 'NONE',  ( 1.000000000000000000, 0.0000000000000000000, 0.0000000000000000000 ) ) ;
#31 = MECHANICAL_CONTEXT ( 'NONE', #96, 'mechanical' ) ;
#32 = EDGE_CURVE ( 'NONE', #142, #2, #128, .T. ) ;
#33 = FACE_OUTER_BOUND ( 'NONE', #115, .T. ) ;
#34 = EDGE_LOOP ( 'NONE', ( #42, #14, #16, #108 ) ) ;
#35 = LINE ( 'NONE', #47, #98 ) ;
#36 = APPROVAL ( #70, 'UNSPECIFIED' ) ;
#37 = AXIS2_PLACEMENT_3D ( 'NONE', #132, #90, #171 ) ;
#38 = COORDINATED_UNIVERSAL_TIME_OFFSET ( 1, 0, .AHEAD. ) ;
#39 = APPROVAL_DATE_TIME ( #3, #36 ) ;
#40 = CARTESIAN_POINT ( 'NONE',  ( 0.0000000000000000000, 0.0000000000000000000, 0.0000000000000000000 ) ) ;
#41 = AXIS2_PLACEMENT_3D ( 'NONE', #155, #232, #30 ) ;
#42 = ORIENTED_EDGE ( 'NONE', *, *, #163, .F. ) ;
#43 = PRODUCT_DEFINITION_FORMATION_WITH_SPECIFIED_SOURCE ( 'ANY', '', #55, .NOT_KNOWN. ) ;
#44 = CARTESIAN_POINT ( 'NONE',  ( -4.000000000000000000, 0.0000000000000000000, 45.00000000000000000 ) ) ;
#45 = EDGE_CURVE ( 'NONE', #63, #103, #83, .T. ) ;
#46 = DIRECTION ( 'NONE',  ( 0.0000000000000000000, 0.0000000000000000000, 1.000000000000000000 ) ) ;
#47 = CARTESIAN_POINT ( 'NONE',  ( 4.000000000000000000, 4.898587196589411800E-016, 45.00000000000000000 ) ) ;
#48 = CARTESIAN_POINT ( 'NONE',  ( -4.000000000000000000, 0.0000000000000000000, 45.00000000000000000 ) ) ;
#49 = APPLICATION_CONTEXT ( 'configuration controlled 3d designs of mechanical parts and assemblies' ) ;
#50 = CC_DESIGN_DATE_AND_TIME_ASSIGNMENT ( #223, #180, ( #124 ) ) ;
#51 = ORIENTED_EDGE ( 'NONE', *, *, #181, .F. ) ;
#52 = CALENDAR_DATE ( 2023, 16, 5 ) ;
#53 = AXIS2_PLACEMENT_3D ( 'NONE', #212, #88, #111 ) ;
#54 = APPLICATION_PROTOCOL_DEFINITION ( 'international standard', 'config_control_design', 1994, #96 ) ;
#55 = PRODUCT ( 'entretoise axe 1', 'entretoise axe 1', '', ( #31 ) ) ;
#56 = APPROVAL_PERSON_ORGANIZATION ( #112, #36, #219 ) ;
#57 = CALENDAR_DATE ( 2023, 16, 5 ) ;
#58 = ORIENTED_EDGE ( 'NONE', *, *, #249, .F. ) ;
#59 = AXIS2_PLACEMENT_3D ( 'NONE', #149, #129, #166 ) ;
#60 = CIRCLE ( 'NONE', #186, 2.899999999999999900 ) ;
#61 = ADVANCED_BREP_SHAPE_REPRESENTATION ( 'entretoise axe 1', ( #245, #41 ), #203 ) ;
#62 = CARTESIAN_POINT ( 'NONE',  ( 2.899999999999999900, 3.551475717527323300E-016, 45.00000000000000000 ) ) ;
#63 = VERTEX_POINT ( 'NONE', #168 ) ;
#64 = AXIS2_PLACEMENT_3D ( 'NONE', #135, #154, #69 ) ;
#65 = DIRECTION ( 'NONE',  ( 1.000000000000000000, 0.0000000000000000000, 0.0000000000000000000 ) ) ;
#66 = DIRECTION ( 'NONE',  ( -0.0000000000000000000, -0.0000000000000000000, -1.000000000000000000 ) ) ;
#67 = APPROVAL_DATE_TIME ( #15, #99 ) ;
#68 = CARTESIAN_POINT ( 'NONE',  ( 0.0000000000000000000, 0.0000000000000000000, 45.00000000000000000 ) ) ;
#69 = DIRECTION ( 'NONE',  ( -1.000000000000000000, 0.0000000000000000000, 0.0000000000000000000 ) ) ;
#70 = APPROVAL_STATUS ( 'not_yet_approved' ) ;
#71 = CALENDAR_DATE ( 2023, 16, 5 ) ;
#72 = ORIENTED_EDGE ( 'NONE', *, *, #32, .F. ) ;
#73 = FACE_OUTER_BOUND ( 'NONE', #34, .T. ) ;
#74 = ADVANCED_FACE ( 'NONE', ( #86, #178 ), #106, .T. ) ;
#75 = CC_DESIGN_PERSON_AND_ORGANIZATION_ASSIGNMENT ( #185, #198, ( #55 ) ) ;
#76 = ORGANIZATION ( 'UNSPECIFIED', 'UNSPECIFIED', '' ) ;
#77 = ORIENTED_EDGE ( 'NONE', *, *, #174, .F. ) ;
#78 = VECTOR ( 'NONE', #26, 1000.000000000000000 ) ;
#79 = CC_DESIGN_APPROVAL ( #221, ( #124 ) ) ;
#80 = CC_DESIGN_PERSON_AND_ORGANIZATION_ASSIGNMENT ( #13, #94, ( #87 ) ) ;
#81 = UNCERTAINTY_MEASURE_WITH_UNIT (LENGTH_MEASURE( 1.000000000000000100E-005 ), #243, 'distance_accuracy_value', 'NONE');
#82 = ORIENTED_EDGE ( 'NONE', *, *, #181, .T. ) ;
#83 = CIRCLE ( 'NONE', #59, 2.899999999999999900 ) ;
#84 = CARTESIAN_POINT ( 'NONE',  ( 0.0000000000000000000, 0.0000000000000000000, 45.00000000000000000 ) ) ;
#85 = VERTEX_POINT ( 'NONE', #62 ) ;
#86 = FACE_OUTER_BOUND ( 'NONE', #169, .T. ) ;
#87 = PRODUCT_DEFINITION ( 'UNKNOWN', '', #43, #204 ) ;
#88 = DIRECTION ( 'NONE',  ( 0.0000000000000000000, 0.0000000000000000000, 1.000000000000000000 ) ) ;
#89 = PERSON_AND_ORGANIZATION ( #121, #76 ) ;
#90 = DIRECTION ( 'NONE',  ( -0.0000000000000000000, -0.0000000000000000000, -1.000000000000000000 ) ) ;
#91 = DIRECTION ( 'NONE',  ( -1.000000000000000000, 0.0000000000000000000, 0.0000000000000000000 ) ) ;
#92 = ORIENTED_EDGE ( 'NONE', *, *, #240, .F. ) ;
#93 = CIRCLE ( 'NONE', #7, 2.899999999999999900 ) ;
#94 = PERSON_AND_ORGANIZATION_ROLE ( 'creator' ) ;
#95 = ADVANCED_FACE ( 'NONE', ( #183, #146 ), #150, .F. ) ;
#96 = APPLICATION_CONTEXT ( 'configuration controlled 3d designs of mechanical parts and assemblies' ) ;
#97 = AXIS2_PLACEMENT_3D ( 'NONE', #8, #244, #214 ) ;
#98 = VECTOR ( 'NONE', #172, 1000.000000000000000 ) ;
#99 = APPROVAL ( #218, 'UNSPECIFIED' ) ;
#100 = EDGE_LOOP ( 'NONE', ( #177, #92 ) ) ;
#101 = AXIS2_PLACEMENT_3D ( 'NONE', #84, #20, #151 ) ;
#102 = DIRECTION ( 'NONE',  ( 1.000000000000000000, 0.0000000000000000000, 0.0000000000000000000 ) ) ;
#103 = VERTEX_POINT ( 'NONE', #5 ) ;
#104 = CALENDAR_DATE ( 2023, 16, 5 ) ;
#105 = CYLINDRICAL_SURFACE ( 'NONE', #64, 4.000000000000000000 ) ;
#106 = PLANE ( 'NONE',  #101 ) ;
#107 = CC_DESIGN_SECURITY_CLASSIFICATION ( #124, ( #43 ) ) ;
#108 = ORIENTED_EDGE ( 'NONE', *, *, #45, .F. ) ;
#109 = DIRECTION ( 'NONE',  ( -0.0000000000000000000, -0.0000000000000000000, -1.000000000000000000 ) ) ;
#110 = DIRECTION ( 'NONE',  ( 1.000000000000000000, 0.0000000000000000000, 0.0000000000000000000 ) ) ;
#111 = DIRECTION ( 'NONE',  ( 1.000000000000000000, 0.0000000000000000000, 0.0000000000000000000 ) ) ;
#112 = PERSON_AND_ORGANIZATION ( #121, #76 ) ;
#113 = APPROVAL_PERSON_ORGANIZATION ( #127, #99, #139 ) ;
#114 = CARTESIAN_POINT ( 'NONE',  ( 2.899999999999999900, 3.551475717527323300E-016, 45.00000000000000000 ) ) ;
#115 = EDGE_LOOP ( 'NONE', ( #51, #239, #4, #122 ) ) ;
#116 = CC_DESIGN_APPROVAL ( #99, ( #87 ) ) ;
#117 = PRODUCT_DEFINITION_SHAPE ( 'NONE', 'NONE',  #87 ) ;
#118 = AXIS2_PLACEMENT_3D ( 'NONE', #158, #191, #213 ) ;
#119 = APPROVAL_DATE_TIME ( #206, #221 ) ;
#120 = CIRCLE ( 'NONE', #118, 4.000000000000000000 ) ;
#121 = PERSON ( 'UNSPECIFIED', 'UNSPECIFIED', 'UNSPECIFIED', ('UNSPECIFIED'), ('UNSPECIFIED'), ('UNSPECIFIED') ) ;
#122 = ORIENTED_EDGE ( 'NONE', *, *, #192, .F. ) ;
#123 = APPROVAL_PERSON_ORGANIZATION ( #211, #221, #201 ) ;
#124 = SECURITY_CLASSIFICATION ( '', '', #9 ) ;
#125 = AXIS2_PLACEMENT_3D ( 'NONE', #226, #24, #102 ) ;
#126 = LOCAL_TIME ( 15, 22, 57.00000000000000000, #19 ) ;
#127 = PERSON_AND_ORGANIZATION ( #121, #76 ) ;
#128 = CIRCLE ( 'NONE', #125, 4.000000000000000000 ) ;
#129 = DIRECTION ( 'NONE',  ( 0.0000000000000000000, 0.0000000000000000000, 1.000000000000000000 ) ) ;
#130 = DIRECTION ( 'NONE',  ( 1.000000000000000000, 0.0000000000000000000, -0.0000000000000000000 ) ) ;
#131 = CARTESIAN_POINT ( 'NONE',  ( 0.0000000000000000000, 0.0000000000000000000, 45.00000000000000000 ) ) ;
#132 = CARTESIAN_POINT ( 'NONE',  ( 0.0000000000000000000, 0.0000000000000000000, 45.00000000000000000 ) ) ;
#133 = AXIS2_PLACEMENT_3D ( 'NONE', #40, #23, #130 ) ;
#134 =( NAMED_UNIT ( * ) PLANE_ANGLE_UNIT ( ) SI_UNIT ( $, .RADIAN. ) );
#135 = CARTESIAN_POINT ( 'NONE',  ( 0.0000000000000000000, 0.0000000000000000000, 45.00000000000000000 ) ) ;
#136 = CLOSED_SHELL ( 'NONE', ( #237, #160, #74, #95, #179, #140 ) ) ;
#137 = ORIENTED_EDGE ( 'NONE', *, *, #231, .F. ) ;
#138 = DATE_TIME_ROLE ( 'creation_date' ) ;
#139 = APPROVAL_ROLE ( '' ) ;
#140 = ADVANCED_FACE ( 'NONE', ( #73 ), #157, .F. ) ;
#141 = LINE ( 'NONE', #216, #234 ) ;
#142 = VERTEX_POINT ( 'NONE', #44 ) ;
#143 = AXIS2_PLACEMENT_3D ( 'NONE', #25, #195, #65 ) ;
#144 = CALENDAR_DATE ( 2023, 16, 5 ) ;
#145 = AXIS2_PLACEMENT_3D ( 'NONE', #131, #46, #110 ) ;
#146 = FACE_BOUND ( 'NONE', #233, .T. ) ;
#147 = LOCAL_TIME ( 15, 22, 57.00000000000000000, #1 ) ;
#148 = CIRCLE ( 'NONE', #143, 4.000000000000000000 ) ;
#149 = CARTESIAN_POINT ( 'NONE',  ( 0.0000000000000000000, 0.0000000000000000000, 0.0000000000000000000 ) ) ;
#150 = PLANE ( 'NONE',  #133 ) ;
#151 = DIRECTION ( 'NONE',  ( 1.000000000000000000, 0.0000000000000000000, -0.0000000000000000000 ) ) ;
#152 = EDGE_CURVE ( 'NONE', #222, #21, #120, .T. ) ;
#153 = DIRECTION ( 'NONE',  ( -0.0000000000000000000, -0.0000000000000000000, -1.000000000000000000 ) ) ;
#154 = DIRECTION ( 'NONE',  ( -0.0000000000000000000, -0.0000000000000000000, -1.000000000000000000 ) ) ;
#155 = CARTESIAN_POINT ( 'NONE',  ( 0.0000000000000000000, 0.0000000000000000000, 0.0000000000000000000 ) ) ;
#156 = DIRECTION ( 'NONE',  ( 1.000000000000000000, 0.0000000000000000000, 0.0000000000000000000 ) ) ;
#157 = CYLINDRICAL_SURFACE ( 'NONE', #37, 2.899999999999999900 ) ;
#158 = CARTESIAN_POINT ( 'NONE',  ( 0.0000000000000000000, 0.0000000000000000000, 0.0000000000000000000 ) ) ;
#159 = PERSON_AND_ORGANIZATION_ROLE ( 'classification_officer' ) ;
#160 = ADVANCED_FACE ( 'NONE', ( #33 ), #105, .T. ) ;
#161 = LOCAL_TIME ( 15, 22, 57.00000000000000000, #38 ) ;
#162 = ORIENTED_EDGE ( 'NONE', *, *, #174, .T. ) ;
#163 = EDGE_CURVE ( 'NONE', #85, #63, #241, .T. ) ;
#164 = DATE_AND_TIME ( #57, #175 ) ;
#165 = FACE_OUTER_BOUND ( 'NONE', #228, .T. ) ;
#166 = DIRECTION ( 'NONE',  ( 1.000000000000000000, 0.0000000000000000000, 0.0000000000000000000 ) ) ;
#167 = ORIENTED_EDGE ( 'NONE', *, *, #17, .T. ) ;
#168 = CARTESIAN_POINT ( 'NONE',  ( 2.899999999999999900, 3.551475717527323300E-016, 0.0000000000000000000 ) ) ;
#169 = EDGE_LOOP ( 'NONE', ( #10, #82 ) ) ;
#170 = AXIS2_PLACEMENT_3D ( 'NONE', #194, #66, #91 ) ;
#171 = DIRECTION ( 'NONE',  ( -1.000000000000000000, 0.0000000000000000000, 0.0000000000000000000 ) ) ;
#172 = DIRECTION ( 'NONE',  ( -0.0000000000000000000, -0.0000000000000000000, -1.000000000000000000 ) ) ;
#173 = PERSON_AND_ORGANIZATION ( #121, #76 ) ;
#174 = EDGE_CURVE ( 'NONE', #184, #85, #247, .T. ) ;
#175 = LOCAL_TIME ( 15, 22, 57.00000000000000000, #224 ) ;
#176 = CARTESIAN_POINT ( 'NONE',  ( -4.000000000000000000, 0.0000000000000000000, 0.0000000000000000000 ) ) ;
#177 = ORIENTED_EDGE ( 'NONE', *, *, #152, .F. ) ;
#178 = FACE_BOUND ( 'NONE', #28, .T. ) ;
#179 = ADVANCED_FACE ( 'NONE', ( #165 ), #208, .T. ) ;
#180 = DATE_TIME_ROLE ( 'classification_date' ) ;
#181 = EDGE_CURVE ( 'NONE', #2, #142, #238, .T. ) ;
#182 = LOCAL_TIME ( 15, 22, 57.00000000000000000, #220 ) ;
#183 = FACE_OUTER_BOUND ( 'NONE', #100, .T. ) ;
#184 = VERTEX_POINT ( 'NONE', #246 ) ;
#185 = PERSON_AND_ORGANIZATION ( #121, #76 ) ;
#186 = AXIS2_PLACEMENT_3D ( 'NONE', #68, #215, #156 ) ;
#187 = CARTESIAN_POINT ( 'NONE',  ( 4.000000000000000000, 4.898587196589411800E-016, 0.0000000000000000000 ) ) ;
#188 = CYLINDRICAL_SURFACE ( 'NONE', #170, 2.899999999999999900 ) ;
#189 = ORIENTED_EDGE ( 'NONE', *, *, #152, .T. ) ;
#190 = DIRECTION ( 'NONE',  ( 0.0000000000000000000, 0.0000000000000000000, 1.000000000000000000 ) ) ;
#191 = DIRECTION ( 'NONE',  ( 0.0000000000000000000, 0.0000000000000000000, 1.000000000000000000 ) ) ;
#192 = EDGE_CURVE ( 'NONE', #142, #222, #196, .T. ) ;
#193 = PERSON_AND_ORGANIZATION ( #121, #76 ) ;
#194 = CARTESIAN_POINT ( 'NONE',  ( 0.0000000000000000000, 0.0000000000000000000, 45.00000000000000000 ) ) ;
#195 = DIRECTION ( 'NONE',  ( 0.0000000000000000000, 0.0000000000000000000, 1.000000000000000000 ) ) ;
#196 = LINE ( 'NONE', #48, #78 ) ;
#197 = ORIENTED_EDGE ( 'NONE', *, *, #192, .T. ) ;
#198 = PERSON_AND_ORGANIZATION_ROLE ( 'design_owner' ) ;
#199 = VECTOR ( 'NONE', #109, 1000.000000000000000 ) ;
#200 = CC_DESIGN_DATE_AND_TIME_ASSIGNMENT ( #164, #138, ( #87 ) ) ;
#201 = APPROVAL_ROLE ( '' ) ;
#202 = PERSON_AND_ORGANIZATION_ROLE ( 'design_supplier' ) ;
#203 =( GEOMETRIC_REPRESENTATION_CONTEXT ( 3 ) GLOBAL_UNCERTAINTY_ASSIGNED_CONTEXT ( ( #81 ) ) GLOBAL_UNIT_ASSIGNED_CONTEXT ( ( #243, #134, #27 ) ) REPRESENTATION_CONTEXT ( 'NONE', 'WORKASPACE' ) );
#204 = DESIGN_CONTEXT ( 'detailed design', #49, 'design' ) ;
#205 = CC_DESIGN_PERSON_AND_ORGANIZATION_ASSIGNMENT ( #193, #202, ( #43 ) ) ;
#206 = DATE_AND_TIME ( #144, #182 ) ;
#207 = EDGE_CURVE ( 'NONE', #184, #103, #141, .T. ) ;
#208 = CYLINDRICAL_SURFACE ( 'NONE', #97, 4.000000000000000000 ) ;
#209 = CARTESIAN_POINT ( 'NONE',  ( 4.000000000000000000, 4.898587196589411800E-016, 45.00000000000000000 ) ) ;
#210 = EDGE_LOOP ( 'NONE', ( #162, #235, #18, #227 ) ) ;
#211 = PERSON_AND_ORGANIZATION ( #121, #76 ) ;
#212 = CARTESIAN_POINT ( 'NONE',  ( 0.0000000000000000000, 0.0000000000000000000, 45.00000000000000000 ) ) ;
#213 = DIRECTION ( 'NONE',  ( 1.000000000000000000, 0.0000000000000000000, 0.0000000000000000000 ) ) ;
#214 = DIRECTION ( 'NONE',  ( -1.000000000000000000, 0.0000000000000000000, 0.0000000000000000000 ) ) ;
#215 = DIRECTION ( 'NONE',  ( 0.0000000000000000000, 0.0000000000000000000, 1.000000000000000000 ) ) ;
#216 = CARTESIAN_POINT ( 'NONE',  ( -2.899999999999999900, 0.0000000000000000000, 45.00000000000000000 ) ) ;
#217 = APPROVAL_STATUS ( 'not_yet_approved' ) ;
#218 = APPROVAL_STATUS ( 'not_yet_approved' ) ;
#219 = APPROVAL_ROLE ( '' ) ;
#220 = COORDINATED_UNIVERSAL_TIME_OFFSET ( 1, 0, .AHEAD. ) ;
#221 = APPROVAL ( #217, 'UNSPECIFIED' ) ;
#222 = VERTEX_POINT ( 'NONE', #176 ) ;
#223 = DATE_AND_TIME ( #104, #147 ) ;
#224 = COORDINATED_UNIVERSAL_TIME_OFFSET ( 1, 0, .AHEAD. ) ;
#225 = CARTESIAN_POINT ( 'NONE',  ( 0.0000000000000000000, 0.0000000000000000000, 0.0000000000000000000 ) ) ;
#226 = CARTESIAN_POINT ( 'NONE',  ( 0.0000000000000000000, 0.0000000000000000000, 45.00000000000000000 ) ) ;
#227 = ORIENTED_EDGE ( 'NONE', *, *, #207, .F. ) ;
#228 = EDGE_LOOP ( 'NONE', ( #137, #72, #197, #189 ) ) ;
#229 = DIRECTION ( 'NONE',  ( 1.000000000000000000, 0.0000000000000000000, 0.0000000000000000000 ) ) ;
#230 = PRODUCT_RELATED_PRODUCT_CATEGORY ( 'detail', '', ( #55 ) ) ;
#231 = EDGE_CURVE ( 'NONE', #2, #21, #35, .T. ) ;
#232 = DIRECTION ( 'NONE',  ( 0.0000000000000000000, 0.0000000000000000000, 1.000000000000000000 ) ) ;
#233 = EDGE_LOOP ( 'NONE', ( #167, #242 ) ) ;
#234 = VECTOR ( 'NONE', #153, 1000.000000000000000 ) ;
#235 = ORIENTED_EDGE ( 'NONE', *, *, #163, .T. ) ;
#236 = SHAPE_DEFINITION_REPRESENTATION ( #117, #61 ) ;
#237 = ADVANCED_FACE ( 'NONE', ( #29 ), #188, .F. ) ;
#238 = CIRCLE ( 'NONE', #53, 4.000000000000000000 ) ;
#239 = ORIENTED_EDGE ( 'NONE', *, *, #231, .T. ) ;
#240 = EDGE_CURVE ( 'NONE', #21, #222, #148, .T. ) ;
#241 = LINE ( 'NONE', #114, #199 ) ;
#242 = ORIENTED_EDGE ( 'NONE', *, *, #45, .T. ) ;
#243 =( LENGTH_UNIT ( ) NAMED_UNIT ( * ) SI_UNIT ( .MILLI., .METRE. ) );
#244 = DIRECTION ( 'NONE',  ( -0.0000000000000000000, -0.0000000000000000000, -1.000000000000000000 ) ) ;
#245 = MANIFOLD_SOLID_BREP ( 'Boss.-Extru.1', #136 ) ;
#246 = CARTESIAN_POINT ( 'NONE',  ( -2.899999999999999900, 0.0000000000000000000, 45.00000000000000000 ) ) ;
#247 = CIRCLE ( 'NONE', #145, 2.899999999999999900 ) ;
#248 = APPLICATION_PROTOCOL_DEFINITION ( 'international standard', 'config_control_design', 1994, #49 ) ;
#249 = EDGE_CURVE ( 'NONE', #85, #184, #60, .T. ) ;
ENDSEC;
END-ISO-10303-21;
