ISO-10303-21;
HEADER;
/* Generated by software containing ST-Developer
 * from STEP Tools, Inc. (www.steptools.com) 
 */

FILE_DESCRIPTION(
/* description */ (''),
/* implementation_level */ '2;1');

FILE_NAME(
/* name */ 'SMS1304_PlaqueGround.step',
/* time_stamp */ '2023-05-07T12:01:16+02:00',
/* author */ (''),
/* organization */ (''),
/* preprocessor_version */ 'ST-DEVELOPER v19.2',
/* originating_system */ 'Autodesk Translation Framework v12.4.0.73',
/* authorisation */ '');

FILE_SCHEMA (('AUTOMOTIVE_DESIGN { 1 0 10303 214 3 1 1 }'));
ENDSEC;

DATA;
#10=MECHANICAL_DESIGN_GEOMETRIC_PRESENTATION_REPRESENTATION('',(#13),#372);
#11=SHAPE_REPRESENTATION_RELATIONSHIP('SRR','None',#379,#12);
#12=ADVANCED_BREP_SHAPE_REPRESENTATION('',(#14),#371);
#13=STYLED_ITEM('',(#388),#14);
#14=MANIFOLD_SOLID_BREP('Corps1',#212);
#15=FACE_BOUND('',#47,.T.);
#16=FACE_BOUND('',#48,.T.);
#17=FACE_BOUND('',#49,.T.);
#18=FACE_BOUND('',#51,.T.);
#19=FACE_BOUND('',#52,.T.);
#20=FACE_BOUND('',#53,.T.);
#21=PLANE('',#235);
#22=PLANE('',#239);
#23=PLANE('',#243);
#24=PLANE('',#247);
#25=PLANE('',#248);
#26=FACE_OUTER_BOUND('',#37,.T.);
#27=FACE_OUTER_BOUND('',#38,.T.);
#28=FACE_OUTER_BOUND('',#39,.T.);
#29=FACE_OUTER_BOUND('',#40,.T.);
#30=FACE_OUTER_BOUND('',#41,.T.);
#31=FACE_OUTER_BOUND('',#42,.T.);
#32=FACE_OUTER_BOUND('',#43,.T.);
#33=FACE_OUTER_BOUND('',#44,.T.);
#34=FACE_OUTER_BOUND('',#45,.T.);
#35=FACE_OUTER_BOUND('',#46,.T.);
#36=FACE_OUTER_BOUND('',#50,.T.);
#37=EDGE_LOOP('',(#141,#142,#143,#144));
#38=EDGE_LOOP('',(#145,#146,#147,#148));
#39=EDGE_LOOP('',(#149,#150,#151,#152));
#40=EDGE_LOOP('',(#153,#154,#155,#156));
#41=EDGE_LOOP('',(#157,#158,#159,#160));
#42=EDGE_LOOP('',(#161,#162,#163,#164));
#43=EDGE_LOOP('',(#165,#166,#167,#168));
#44=EDGE_LOOP('',(#169,#170,#171,#172));
#45=EDGE_LOOP('',(#173,#174,#175,#176));
#46=EDGE_LOOP('',(#177,#178,#179,#180,#181,#182));
#47=EDGE_LOOP('',(#183));
#48=EDGE_LOOP('',(#184));
#49=EDGE_LOOP('',(#185));
#50=EDGE_LOOP('',(#186,#187,#188,#189,#190,#191));
#51=EDGE_LOOP('',(#192));
#52=EDGE_LOOP('',(#193));
#53=EDGE_LOOP('',(#194));
#54=LINE('',#317,#69);
#55=LINE('',#323,#70);
#56=LINE('',#329,#71);
#57=LINE('',#334,#72);
#58=LINE('',#336,#73);
#59=LINE('',#338,#74);
#60=LINE('',#339,#75);
#61=LINE('',#345,#76);
#62=LINE('',#348,#77);
#63=LINE('',#350,#78);
#64=LINE('',#351,#79);
#65=LINE('',#357,#80);
#66=LINE('',#360,#81);
#67=LINE('',#362,#82);
#68=LINE('',#363,#83);
#69=VECTOR('',#255,4.1);
#70=VECTOR('',#262,4.1);
#71=VECTOR('',#269,4.1);
#72=VECTOR('',#274,10.);
#73=VECTOR('',#275,10.);
#74=VECTOR('',#276,10.);
#75=VECTOR('',#277,10.);
#76=VECTOR('',#284,10.);
#77=VECTOR('',#287,10.);
#78=VECTOR('',#288,10.);
#79=VECTOR('',#289,10.);
#80=VECTOR('',#296,10.);
#81=VECTOR('',#299,10.);
#82=VECTOR('',#300,10.);
#83=VECTOR('',#301,10.);
#84=CIRCLE('',#227,4.1);
#85=CIRCLE('',#228,4.1);
#86=CIRCLE('',#230,4.1);
#87=CIRCLE('',#231,4.1);
#88=CIRCLE('',#233,4.1);
#89=CIRCLE('',#234,4.1);
#90=CIRCLE('',#237,14.);
#91=CIRCLE('',#238,14.);
#92=CIRCLE('',#241,14.);
#93=CIRCLE('',#242,14.);
#94=CIRCLE('',#245,14.);
#95=CIRCLE('',#246,14.);
#96=VERTEX_POINT('',#314);
#97=VERTEX_POINT('',#316);
#98=VERTEX_POINT('',#320);
#99=VERTEX_POINT('',#322);
#100=VERTEX_POINT('',#326);
#101=VERTEX_POINT('',#328);
#102=VERTEX_POINT('',#332);
#103=VERTEX_POINT('',#333);
#104=VERTEX_POINT('',#335);
#105=VERTEX_POINT('',#337);
#106=VERTEX_POINT('',#341);
#107=VERTEX_POINT('',#343);
#108=VERTEX_POINT('',#347);
#109=VERTEX_POINT('',#349);
#110=VERTEX_POINT('',#353);
#111=VERTEX_POINT('',#355);
#112=VERTEX_POINT('',#359);
#113=VERTEX_POINT('',#361);
#114=EDGE_CURVE('',#96,#96,#84,.T.);
#115=EDGE_CURVE('',#96,#97,#54,.T.);
#116=EDGE_CURVE('',#97,#97,#85,.T.);
#117=EDGE_CURVE('',#98,#98,#86,.T.);
#118=EDGE_CURVE('',#98,#99,#55,.T.);
#119=EDGE_CURVE('',#99,#99,#87,.T.);
#120=EDGE_CURVE('',#100,#100,#88,.T.);
#121=EDGE_CURVE('',#100,#101,#56,.T.);
#122=EDGE_CURVE('',#101,#101,#89,.T.);
#123=EDGE_CURVE('',#102,#103,#57,.T.);
#124=EDGE_CURVE('',#103,#104,#58,.T.);
#125=EDGE_CURVE('',#105,#104,#59,.T.);
#126=EDGE_CURVE('',#102,#105,#60,.T.);
#127=EDGE_CURVE('',#106,#102,#90,.T.);
#128=EDGE_CURVE('',#107,#105,#91,.T.);
#129=EDGE_CURVE('',#106,#107,#61,.T.);
#130=EDGE_CURVE('',#108,#106,#62,.T.);
#131=EDGE_CURVE('',#109,#107,#63,.T.);
#132=EDGE_CURVE('',#108,#109,#64,.T.);
#133=EDGE_CURVE('',#110,#108,#92,.T.);
#134=EDGE_CURVE('',#111,#109,#93,.T.);
#135=EDGE_CURVE('',#110,#111,#65,.T.);
#136=EDGE_CURVE('',#112,#110,#66,.T.);
#137=EDGE_CURVE('',#113,#111,#67,.T.);
#138=EDGE_CURVE('',#112,#113,#68,.T.);
#139=EDGE_CURVE('',#103,#112,#94,.T.);
#140=EDGE_CURVE('',#104,#113,#95,.T.);
#141=ORIENTED_EDGE('',*,*,#114,.F.);
#142=ORIENTED_EDGE('',*,*,#115,.T.);
#143=ORIENTED_EDGE('',*,*,#116,.T.);
#144=ORIENTED_EDGE('',*,*,#115,.F.);
#145=ORIENTED_EDGE('',*,*,#117,.F.);
#146=ORIENTED_EDGE('',*,*,#118,.T.);
#147=ORIENTED_EDGE('',*,*,#119,.T.);
#148=ORIENTED_EDGE('',*,*,#118,.F.);
#149=ORIENTED_EDGE('',*,*,#120,.F.);
#150=ORIENTED_EDGE('',*,*,#121,.T.);
#151=ORIENTED_EDGE('',*,*,#122,.T.);
#152=ORIENTED_EDGE('',*,*,#121,.F.);
#153=ORIENTED_EDGE('',*,*,#123,.T.);
#154=ORIENTED_EDGE('',*,*,#124,.T.);
#155=ORIENTED_EDGE('',*,*,#125,.F.);
#156=ORIENTED_EDGE('',*,*,#126,.F.);
#157=ORIENTED_EDGE('',*,*,#127,.T.);
#158=ORIENTED_EDGE('',*,*,#126,.T.);
#159=ORIENTED_EDGE('',*,*,#128,.F.);
#160=ORIENTED_EDGE('',*,*,#129,.F.);
#161=ORIENTED_EDGE('',*,*,#130,.T.);
#162=ORIENTED_EDGE('',*,*,#129,.T.);
#163=ORIENTED_EDGE('',*,*,#131,.F.);
#164=ORIENTED_EDGE('',*,*,#132,.F.);
#165=ORIENTED_EDGE('',*,*,#133,.T.);
#166=ORIENTED_EDGE('',*,*,#132,.T.);
#167=ORIENTED_EDGE('',*,*,#134,.F.);
#168=ORIENTED_EDGE('',*,*,#135,.F.);
#169=ORIENTED_EDGE('',*,*,#136,.T.);
#170=ORIENTED_EDGE('',*,*,#135,.T.);
#171=ORIENTED_EDGE('',*,*,#137,.F.);
#172=ORIENTED_EDGE('',*,*,#138,.F.);
#173=ORIENTED_EDGE('',*,*,#139,.T.);
#174=ORIENTED_EDGE('',*,*,#138,.T.);
#175=ORIENTED_EDGE('',*,*,#140,.F.);
#176=ORIENTED_EDGE('',*,*,#124,.F.);
#177=ORIENTED_EDGE('',*,*,#140,.T.);
#178=ORIENTED_EDGE('',*,*,#137,.T.);
#179=ORIENTED_EDGE('',*,*,#134,.T.);
#180=ORIENTED_EDGE('',*,*,#131,.T.);
#181=ORIENTED_EDGE('',*,*,#128,.T.);
#182=ORIENTED_EDGE('',*,*,#125,.T.);
#183=ORIENTED_EDGE('',*,*,#120,.T.);
#184=ORIENTED_EDGE('',*,*,#117,.T.);
#185=ORIENTED_EDGE('',*,*,#114,.T.);
#186=ORIENTED_EDGE('',*,*,#139,.F.);
#187=ORIENTED_EDGE('',*,*,#123,.F.);
#188=ORIENTED_EDGE('',*,*,#127,.F.);
#189=ORIENTED_EDGE('',*,*,#130,.F.);
#190=ORIENTED_EDGE('',*,*,#133,.F.);
#191=ORIENTED_EDGE('',*,*,#136,.F.);
#192=ORIENTED_EDGE('',*,*,#122,.F.);
#193=ORIENTED_EDGE('',*,*,#119,.F.);
#194=ORIENTED_EDGE('',*,*,#116,.F.);
#195=CYLINDRICAL_SURFACE('',#226,4.1);
#196=CYLINDRICAL_SURFACE('',#229,4.1);
#197=CYLINDRICAL_SURFACE('',#232,4.1);
#198=CYLINDRICAL_SURFACE('',#236,14.);
#199=CYLINDRICAL_SURFACE('',#240,14.);
#200=CYLINDRICAL_SURFACE('',#244,14.);
#201=ADVANCED_FACE('',(#26),#195,.F.);
#202=ADVANCED_FACE('',(#27),#196,.F.);
#203=ADVANCED_FACE('',(#28),#197,.F.);
#204=ADVANCED_FACE('',(#29),#21,.T.);
#205=ADVANCED_FACE('',(#30),#198,.T.);
#206=ADVANCED_FACE('',(#31),#22,.T.);
#207=ADVANCED_FACE('',(#32),#199,.T.);
#208=ADVANCED_FACE('',(#33),#23,.T.);
#209=ADVANCED_FACE('',(#34),#200,.T.);
#210=ADVANCED_FACE('',(#35,#15,#16,#17),#24,.T.);
#211=ADVANCED_FACE('',(#36,#18,#19,#20),#25,.F.);
#212=CLOSED_SHELL('',(#201,#202,#203,#204,#205,#206,#207,#208,#209,#210,
#211));
#213=DERIVED_UNIT_ELEMENT(#215,1.);
#214=DERIVED_UNIT_ELEMENT(#374,-3.);
#215=(
MASS_UNIT()
NAMED_UNIT(*)
SI_UNIT(.KILO.,.GRAM.)
);
#216=DERIVED_UNIT((#213,#214));
#217=MEASURE_REPRESENTATION_ITEM('density measure',
POSITIVE_RATIO_MEASURE(7850.),#216);
#218=PROPERTY_DEFINITION_REPRESENTATION(#223,#220);
#219=PROPERTY_DEFINITION_REPRESENTATION(#224,#221);
#220=REPRESENTATION('material name',(#222),#371);
#221=REPRESENTATION('density',(#217),#371);
#222=DESCRIPTIVE_REPRESENTATION_ITEM('Acier','Acier');
#223=PROPERTY_DEFINITION('material property','material name',#381);
#224=PROPERTY_DEFINITION('material property','density of part',#381);
#225=AXIS2_PLACEMENT_3D('',#312,#249,#250);
#226=AXIS2_PLACEMENT_3D('',#313,#251,#252);
#227=AXIS2_PLACEMENT_3D('',#315,#253,#254);
#228=AXIS2_PLACEMENT_3D('',#318,#256,#257);
#229=AXIS2_PLACEMENT_3D('',#319,#258,#259);
#230=AXIS2_PLACEMENT_3D('',#321,#260,#261);
#231=AXIS2_PLACEMENT_3D('',#324,#263,#264);
#232=AXIS2_PLACEMENT_3D('',#325,#265,#266);
#233=AXIS2_PLACEMENT_3D('',#327,#267,#268);
#234=AXIS2_PLACEMENT_3D('',#330,#270,#271);
#235=AXIS2_PLACEMENT_3D('',#331,#272,#273);
#236=AXIS2_PLACEMENT_3D('',#340,#278,#279);
#237=AXIS2_PLACEMENT_3D('',#342,#280,#281);
#238=AXIS2_PLACEMENT_3D('',#344,#282,#283);
#239=AXIS2_PLACEMENT_3D('',#346,#285,#286);
#240=AXIS2_PLACEMENT_3D('',#352,#290,#291);
#241=AXIS2_PLACEMENT_3D('',#354,#292,#293);
#242=AXIS2_PLACEMENT_3D('',#356,#294,#295);
#243=AXIS2_PLACEMENT_3D('',#358,#297,#298);
#244=AXIS2_PLACEMENT_3D('',#364,#302,#303);
#245=AXIS2_PLACEMENT_3D('',#365,#304,#305);
#246=AXIS2_PLACEMENT_3D('',#366,#306,#307);
#247=AXIS2_PLACEMENT_3D('',#367,#308,#309);
#248=AXIS2_PLACEMENT_3D('',#368,#310,#311);
#249=DIRECTION('axis',(0.,0.,1.));
#250=DIRECTION('refdir',(1.,0.,0.));
#251=DIRECTION('center_axis',(0.,0.,1.));
#252=DIRECTION('ref_axis',(1.,0.,0.));
#253=DIRECTION('center_axis',(0.,0.,-1.));
#254=DIRECTION('ref_axis',(1.,0.,0.));
#255=DIRECTION('',(0.,0.,-1.));
#256=DIRECTION('center_axis',(0.,0.,-1.));
#257=DIRECTION('ref_axis',(1.,0.,0.));
#258=DIRECTION('center_axis',(0.,0.,1.));
#259=DIRECTION('ref_axis',(1.,0.,0.));
#260=DIRECTION('center_axis',(0.,0.,-1.));
#261=DIRECTION('ref_axis',(1.,0.,0.));
#262=DIRECTION('',(0.,0.,-1.));
#263=DIRECTION('center_axis',(0.,0.,-1.));
#264=DIRECTION('ref_axis',(1.,0.,0.));
#265=DIRECTION('center_axis',(0.,0.,1.));
#266=DIRECTION('ref_axis',(1.,0.,0.));
#267=DIRECTION('center_axis',(0.,0.,-1.));
#268=DIRECTION('ref_axis',(1.,0.,0.));
#269=DIRECTION('',(0.,0.,-1.));
#270=DIRECTION('center_axis',(0.,0.,-1.));
#271=DIRECTION('ref_axis',(1.,0.,0.));
#272=DIRECTION('center_axis',(-0.866025403784438,0.500000000000001,0.));
#273=DIRECTION('ref_axis',(-0.500000000000001,-0.866025403784438,0.));
#274=DIRECTION('',(-0.500000000000001,-0.866025403784438,0.));
#275=DIRECTION('',(0.,0.,1.));
#276=DIRECTION('',(-0.500000000000001,-0.866025403784438,0.));
#277=DIRECTION('',(0.,0.,1.));
#278=DIRECTION('center_axis',(0.,0.,1.));
#279=DIRECTION('ref_axis',(0.866025403784439,0.5,0.));
#280=DIRECTION('center_axis',(0.,0.,1.));
#281=DIRECTION('ref_axis',(0.866025403784439,0.5,0.));
#282=DIRECTION('center_axis',(0.,0.,1.));
#283=DIRECTION('ref_axis',(0.866025403784439,0.5,0.));
#284=DIRECTION('',(0.,0.,1.));
#285=DIRECTION('center_axis',(0.866025403784439,0.499999999999999,0.));
#286=DIRECTION('ref_axis',(-0.499999999999999,0.866025403784439,0.));
#287=DIRECTION('',(-0.499999999999999,0.866025403784439,0.));
#288=DIRECTION('',(-0.499999999999999,0.866025403784439,0.));
#289=DIRECTION('',(0.,0.,1.));
#290=DIRECTION('center_axis',(0.,0.,1.));
#291=DIRECTION('ref_axis',(1.26882631385733E-15,-1.,0.));
#292=DIRECTION('center_axis',(0.,0.,1.));
#293=DIRECTION('ref_axis',(1.26882631385733E-15,-1.,0.));
#294=DIRECTION('center_axis',(0.,0.,1.));
#295=DIRECTION('ref_axis',(1.26882631385733E-15,-1.,0.));
#296=DIRECTION('',(0.,0.,1.));
#297=DIRECTION('center_axis',(-2.15911599874646E-16,-1.,0.));
#298=DIRECTION('ref_axis',(1.,-2.15911599874646E-16,0.));
#299=DIRECTION('',(1.,-2.15911599874646E-16,0.));
#300=DIRECTION('',(1.,-2.15911599874646E-16,0.));
#301=DIRECTION('',(0.,0.,1.));
#302=DIRECTION('center_axis',(0.,0.,1.));
#303=DIRECTION('ref_axis',(-0.866025403784438,0.500000000000001,0.));
#304=DIRECTION('center_axis',(0.,0.,1.));
#305=DIRECTION('ref_axis',(-0.866025403784438,0.500000000000001,0.));
#306=DIRECTION('center_axis',(0.,0.,1.));
#307=DIRECTION('ref_axis',(-0.866025403784438,0.500000000000001,0.));
#308=DIRECTION('center_axis',(0.,0.,1.));
#309=DIRECTION('ref_axis',(1.,0.,0.));
#310=DIRECTION('center_axis',(0.,0.,1.));
#311=DIRECTION('ref_axis',(1.,0.,0.));
#312=CARTESIAN_POINT('',(0.,0.,0.));
#313=CARTESIAN_POINT('Origin',(82.2724133595217,-47.5,0.));
#314=CARTESIAN_POINT('',(78.1724133595217,-47.5,10.));
#315=CARTESIAN_POINT('Origin',(82.2724133595217,-47.5,10.));
#316=CARTESIAN_POINT('',(78.1724133595217,-47.5,0.));
#317=CARTESIAN_POINT('',(78.1724133595217,-47.5,0.));
#318=CARTESIAN_POINT('Origin',(82.2724133595217,-47.5,0.));
#319=CARTESIAN_POINT('Origin',(-82.2724133595217,-47.5,0.));
#320=CARTESIAN_POINT('',(-86.3724133595217,-47.5,10.));
#321=CARTESIAN_POINT('Origin',(-82.2724133595217,-47.5,10.));
#322=CARTESIAN_POINT('',(-86.3724133595217,-47.5,0.));
#323=CARTESIAN_POINT('',(-86.3724133595217,-47.5,0.));
#324=CARTESIAN_POINT('Origin',(-82.2724133595217,-47.5,0.));
#325=CARTESIAN_POINT('Origin',(-3.21499971306206E-14,95.,0.));
#326=CARTESIAN_POINT('',(-4.10000000000003,95.,10.));
#327=CARTESIAN_POINT('Origin',(-3.21499971306206E-14,95.,10.));
#328=CARTESIAN_POINT('',(-4.10000000000003,95.,0.));
#329=CARTESIAN_POINT('',(-4.10000000000003,95.,0.));
#330=CARTESIAN_POINT('Origin',(-3.21499971306206E-14,95.,0.));
#331=CARTESIAN_POINT('Origin',(-12.1243556529822,102.,0.));
#332=CARTESIAN_POINT('',(-12.1243556529822,102.,0.));
#333=CARTESIAN_POINT('',(-94.396769012504,-40.5,0.));
#334=CARTESIAN_POINT('',(-12.1243556529822,102.,0.));
#335=CARTESIAN_POINT('',(-94.396769012504,-40.5,10.));
#336=CARTESIAN_POINT('',(-94.396769012504,-40.5,0.));
#337=CARTESIAN_POINT('',(-12.1243556529822,102.,10.));
#338=CARTESIAN_POINT('',(-12.1243556529822,102.,10.));
#339=CARTESIAN_POINT('',(-12.1243556529822,102.,0.));
#340=CARTESIAN_POINT('Origin',(-3.21499971306206E-14,95.,0.));
#341=CARTESIAN_POINT('',(12.1243556529821,102.,0.));
#342=CARTESIAN_POINT('Origin',(-3.21499971306206E-14,95.,0.));
#343=CARTESIAN_POINT('',(12.1243556529821,102.,10.));
#344=CARTESIAN_POINT('Origin',(-3.21499971306206E-14,95.,10.));
#345=CARTESIAN_POINT('',(12.1243556529821,102.,0.));
#346=CARTESIAN_POINT('Origin',(94.3967690125037,-40.5000000000001,0.));
#347=CARTESIAN_POINT('',(94.3967690125037,-40.5000000000001,0.));
#348=CARTESIAN_POINT('',(94.3967690125037,-40.5000000000001,0.));
#349=CARTESIAN_POINT('',(94.3967690125037,-40.5000000000001,10.));
#350=CARTESIAN_POINT('',(94.3967690125037,-40.5000000000001,10.));
#351=CARTESIAN_POINT('',(94.3967690125037,-40.5000000000001,0.));
#352=CARTESIAN_POINT('Origin',(82.2724133595216,-47.5000000000001,0.));
#353=CARTESIAN_POINT('',(82.2724133595216,-61.5000000000001,0.));
#354=CARTESIAN_POINT('Origin',(82.2724133595216,-47.5000000000001,0.));
#355=CARTESIAN_POINT('',(82.2724133595216,-61.5000000000001,10.));
#356=CARTESIAN_POINT('Origin',(82.2724133595216,-47.5000000000001,10.));
#357=CARTESIAN_POINT('',(82.2724133595216,-61.5000000000001,0.));
#358=CARTESIAN_POINT('Origin',(-82.2724133595219,-61.5000000000001,0.));
#359=CARTESIAN_POINT('',(-82.2724133595219,-61.5000000000001,0.));
#360=CARTESIAN_POINT('',(-82.2724133595219,-61.5000000000001,0.));
#361=CARTESIAN_POINT('',(-82.2724133595219,-61.5000000000001,10.));
#362=CARTESIAN_POINT('',(-82.2724133595219,-61.5000000000001,10.));
#363=CARTESIAN_POINT('',(-82.2724133595219,-61.5000000000001,0.));
#364=CARTESIAN_POINT('Origin',(-82.2724133595219,-47.5000000000001,0.));
#365=CARTESIAN_POINT('Origin',(-82.2724133595219,-47.5000000000001,0.));
#366=CARTESIAN_POINT('Origin',(-82.2724133595219,-47.5000000000001,10.));
#367=CARTESIAN_POINT('Origin',(-1.59872115546023E-13,23.7499999999999,10.));
#368=CARTESIAN_POINT('Origin',(-1.59872115546023E-13,23.7499999999999,0.));
#369=UNCERTAINTY_MEASURE_WITH_UNIT(LENGTH_MEASURE(0.01),#373,
'DISTANCE_ACCURACY_VALUE',
'Maximum model space distance between geometric entities at asserted c
onnectivities');
#370=UNCERTAINTY_MEASURE_WITH_UNIT(LENGTH_MEASURE(0.01),#373,
'DISTANCE_ACCURACY_VALUE',
'Maximum model space distance between geometric entities at asserted c
onnectivities');
#371=(
GEOMETRIC_REPRESENTATION_CONTEXT(3)
GLOBAL_UNCERTAINTY_ASSIGNED_CONTEXT((#369))
GLOBAL_UNIT_ASSIGNED_CONTEXT((#373,#375,#376))
REPRESENTATION_CONTEXT('','3D')
);
#372=(
GEOMETRIC_REPRESENTATION_CONTEXT(3)
GLOBAL_UNCERTAINTY_ASSIGNED_CONTEXT((#370))
GLOBAL_UNIT_ASSIGNED_CONTEXT((#373,#375,#376))
REPRESENTATION_CONTEXT('','3D')
);
#373=(
LENGTH_UNIT()
NAMED_UNIT(*)
SI_UNIT(.MILLI.,.METRE.)
);
#374=(
LENGTH_UNIT()
NAMED_UNIT(*)
SI_UNIT($,.METRE.)
);
#375=(
NAMED_UNIT(*)
PLANE_ANGLE_UNIT()
SI_UNIT($,.RADIAN.)
);
#376=(
NAMED_UNIT(*)
SI_UNIT($,.STERADIAN.)
SOLID_ANGLE_UNIT()
);
#377=SHAPE_DEFINITION_REPRESENTATION(#378,#379);
#378=PRODUCT_DEFINITION_SHAPE('',$,#381);
#379=SHAPE_REPRESENTATION('',(#225),#371);
#380=PRODUCT_DEFINITION_CONTEXT('part definition',#385,'design');
#381=PRODUCT_DEFINITION('PlaqueGround','PlaqueGround v9',#382,#380);
#382=PRODUCT_DEFINITION_FORMATION('',$,#387);
#383=PRODUCT_RELATED_PRODUCT_CATEGORY('PlaqueGround v9',
'PlaqueGround v9',(#387));
#384=APPLICATION_PROTOCOL_DEFINITION('international standard',
'automotive_design',2009,#385);
#385=APPLICATION_CONTEXT(
'Core Data for Automotive Mechanical Design Process');
#386=PRODUCT_CONTEXT('part definition',#385,'mechanical');
#387=PRODUCT('PlaqueGround','PlaqueGround v9',$,(#386));
#388=PRESENTATION_STYLE_ASSIGNMENT((#389));
#389=SURFACE_STYLE_USAGE(.BOTH.,#390);
#390=SURFACE_SIDE_STYLE('',(#391));
#391=SURFACE_STYLE_FILL_AREA(#392);
#392=FILL_AREA_STYLE('Aluminium - Satin\X\E9',(#393));
#393=FILL_AREA_STYLE_COLOUR('Aluminium - Satin\X\E9',#394);
#394=COLOUR_RGB('Aluminium - Satin\X\E9',0.96078431372549,0.96078431372549,
0.964705882352941);
ENDSEC;
END-ISO-10303-21;
