ISO-10303-21;
HEADER;
/* Generated by software containing ST-Developer
 * from STEP Tools, Inc. (www.steptools.com) 
 */

FILE_DESCRIPTION(
/* description */ (''),
/* implementation_level */ '2;1');

FILE_NAME(
/* name */ 'cale disque v3.step',
/* time_stamp */ '2023-05-22T17:16:50+02:00',
/* author */ (''),
/* organization */ (''),
/* preprocessor_version */ 'ST-DEVELOPER v19.2',
/* originating_system */ 'Autodesk Translation Framework v12.4.0.73',
/* authorisation */ '');

FILE_SCHEMA (('AUTOMOTIVE_DESIGN { 1 0 10303 214 3 1 1 }'));
ENDSEC;

DATA;
#10=MECHANICAL_DESIGN_GEOMETRIC_PRESENTATION_REPRESENTATION('',(#17),#164);
#11=ITEM_DEFINED_TRANSFORMATION($,$,#97,#108);
#12=(
REPRESENTATION_RELATIONSHIP($,$,#175,#174)
REPRESENTATION_RELATIONSHIP_WITH_TRANSFORMATION(#11)
SHAPE_REPRESENTATION_RELATIONSHIP()
);
#13=CONTEXT_DEPENDENT_SHAPE_REPRESENTATION(#12,#173);
#14=NEXT_ASSEMBLY_USAGE_OCCURRENCE('Composant1:1','Composant1:1',
'Composant1:1',#177,#178,'Composant1:1');
#15=SHAPE_REPRESENTATION_RELATIONSHIP('SRR','None',#175,#16);
#16=ADVANCED_BREP_SHAPE_REPRESENTATION('',(#18),#163);
#17=STYLED_ITEM('',(#188),#18);
#18=MANIFOLD_SOLID_BREP('Corps1',#83);
#19=CONICAL_SURFACE('',#105,32.25,0.718829999621625);
#20=LINE('',#147,#23);
#21=LINE('',#155,#24);
#22=LINE('',#157,#25);
#23=VECTOR('',#121,27.75);
#24=VECTOR('',#132,32.25);
#25=VECTOR('',#135,30.5);
#26=CYLINDRICAL_SURFACE('',#101,27.75);
#27=CYLINDRICAL_SURFACE('',#107,30.5);
#28=FACE_BOUND('',#36,.T.);
#29=FACE_BOUND('',#39,.T.);
#30=FACE_OUTER_BOUND('',#35,.T.);
#31=FACE_OUTER_BOUND('',#37,.T.);
#32=FACE_OUTER_BOUND('',#38,.T.);
#33=FACE_OUTER_BOUND('',#40,.T.);
#34=FACE_OUTER_BOUND('',#41,.T.);
#35=EDGE_LOOP('',(#60));
#36=EDGE_LOOP('',(#61));
#37=EDGE_LOOP('',(#62,#63,#64,#65));
#38=EDGE_LOOP('',(#66));
#39=EDGE_LOOP('',(#67));
#40=EDGE_LOOP('',(#68,#69,#70,#71));
#41=EDGE_LOOP('',(#72,#73,#74,#75));
#42=CIRCLE('',#99,30.5);
#43=CIRCLE('',#100,27.75);
#44=CIRCLE('',#102,27.75);
#45=CIRCLE('',#104,34.);
#46=CIRCLE('',#106,30.5);
#47=VERTEX_POINT('',#141);
#48=VERTEX_POINT('',#143);
#49=VERTEX_POINT('',#146);
#50=VERTEX_POINT('',#150);
#51=VERTEX_POINT('',#153);
#52=EDGE_CURVE('',#47,#47,#42,.T.);
#53=EDGE_CURVE('',#48,#48,#43,.T.);
#54=EDGE_CURVE('',#48,#49,#20,.T.);
#55=EDGE_CURVE('',#49,#49,#44,.T.);
#56=EDGE_CURVE('',#50,#50,#45,.T.);
#57=EDGE_CURVE('',#51,#51,#46,.T.);
#58=EDGE_CURVE('',#51,#50,#21,.T.);
#59=EDGE_CURVE('',#47,#51,#22,.T.);
#60=ORIENTED_EDGE('',*,*,#52,.T.);
#61=ORIENTED_EDGE('',*,*,#53,.F.);
#62=ORIENTED_EDGE('',*,*,#53,.T.);
#63=ORIENTED_EDGE('',*,*,#54,.T.);
#64=ORIENTED_EDGE('',*,*,#55,.F.);
#65=ORIENTED_EDGE('',*,*,#54,.F.);
#66=ORIENTED_EDGE('',*,*,#56,.F.);
#67=ORIENTED_EDGE('',*,*,#55,.T.);
#68=ORIENTED_EDGE('',*,*,#57,.F.);
#69=ORIENTED_EDGE('',*,*,#58,.T.);
#70=ORIENTED_EDGE('',*,*,#56,.T.);
#71=ORIENTED_EDGE('',*,*,#58,.F.);
#72=ORIENTED_EDGE('',*,*,#52,.F.);
#73=ORIENTED_EDGE('',*,*,#59,.T.);
#74=ORIENTED_EDGE('',*,*,#57,.T.);
#75=ORIENTED_EDGE('',*,*,#59,.F.);
#76=PLANE('',#98);
#77=PLANE('',#103);
#78=ADVANCED_FACE('',(#30,#28),#76,.T.);
#79=ADVANCED_FACE('',(#31),#26,.F.);
#80=ADVANCED_FACE('',(#32,#29),#77,.T.);
#81=ADVANCED_FACE('',(#33),#19,.T.);
#82=ADVANCED_FACE('',(#34),#27,.T.);
#83=CLOSED_SHELL('',(#78,#79,#80,#81,#82));
#84=DERIVED_UNIT_ELEMENT(#86,1.);
#85=DERIVED_UNIT_ELEMENT(#166,-3.);
#86=(
MASS_UNIT()
NAMED_UNIT(*)
SI_UNIT(.KILO.,.GRAM.)
);
#87=DERIVED_UNIT((#84,#85));
#88=MEASURE_REPRESENTATION_ITEM('density measure',
POSITIVE_RATIO_MEASURE(7850.),#87);
#89=PROPERTY_DEFINITION_REPRESENTATION(#94,#91);
#90=PROPERTY_DEFINITION_REPRESENTATION(#95,#92);
#91=REPRESENTATION('material name',(#93),#163);
#92=REPRESENTATION('density',(#88),#163);
#93=DESCRIPTIVE_REPRESENTATION_ITEM('Acier','Acier');
#94=PROPERTY_DEFINITION('material property','material name',#178);
#95=PROPERTY_DEFINITION('material property','density of part',#178);
#96=AXIS2_PLACEMENT_3D('',#138,#109,#110);
#97=AXIS2_PLACEMENT_3D('',#139,#111,#112);
#98=AXIS2_PLACEMENT_3D('',#140,#113,#114);
#99=AXIS2_PLACEMENT_3D('',#142,#115,#116);
#100=AXIS2_PLACEMENT_3D('',#144,#117,#118);
#101=AXIS2_PLACEMENT_3D('',#145,#119,#120);
#102=AXIS2_PLACEMENT_3D('',#148,#122,#123);
#103=AXIS2_PLACEMENT_3D('',#149,#124,#125);
#104=AXIS2_PLACEMENT_3D('',#151,#126,#127);
#105=AXIS2_PLACEMENT_3D('',#152,#128,#129);
#106=AXIS2_PLACEMENT_3D('',#154,#130,#131);
#107=AXIS2_PLACEMENT_3D('',#156,#133,#134);
#108=AXIS2_PLACEMENT_3D('',#158,#136,#137);
#109=DIRECTION('axis',(0.,0.,1.));
#110=DIRECTION('refdir',(1.,0.,0.));
#111=DIRECTION('axis',(0.,0.,1.));
#112=DIRECTION('refdir',(1.,0.,0.));
#113=DIRECTION('center_axis',(0.,1.,0.));
#114=DIRECTION('ref_axis',(0.,0.,1.));
#115=DIRECTION('center_axis',(0.,1.,0.));
#116=DIRECTION('ref_axis',(1.,0.,0.));
#117=DIRECTION('center_axis',(0.,1.,0.));
#118=DIRECTION('ref_axis',(1.,0.,0.));
#119=DIRECTION('center_axis',(0.,1.,0.));
#120=DIRECTION('ref_axis',(0.,0.,1.));
#121=DIRECTION('',(0.,-1.,0.));
#122=DIRECTION('center_axis',(0.,1.,0.));
#123=DIRECTION('ref_axis',(1.,0.,0.));
#124=DIRECTION('center_axis',(0.,-1.,0.));
#125=DIRECTION('ref_axis',(0.,0.,-1.));
#126=DIRECTION('center_axis',(0.,1.,0.));
#127=DIRECTION('ref_axis',(1.,0.,0.));
#128=DIRECTION('center_axis',(0.,-1.,0.));
#129=DIRECTION('ref_axis',(0.,0.,1.));
#130=DIRECTION('center_axis',(0.,1.,0.));
#131=DIRECTION('ref_axis',(1.,0.,0.));
#132=DIRECTION('',(-8.06435560249964E-17,-0.752576694706878,-0.658504607868518));
#133=DIRECTION('center_axis',(0.,1.,0.));
#134=DIRECTION('ref_axis',(0.,0.,1.));
#135=DIRECTION('',(0.,-1.,0.));
#136=DIRECTION('',(0.,0.,1.));
#137=DIRECTION('',(1.,0.,0.));
#138=CARTESIAN_POINT('',(0.,0.,0.));
#139=CARTESIAN_POINT('',(0.,0.,0.));
#140=CARTESIAN_POINT('Origin',(0.,0.,27.75));
#141=CARTESIAN_POINT('',(-3.73517273739943E-15,0.,-30.5));
#142=CARTESIAN_POINT('Origin',(0.,0.,0.));
#143=CARTESIAN_POINT('',(-3.39839486763391E-15,0.,-27.75));
#144=CARTESIAN_POINT('Origin',(0.,0.,0.));
#145=CARTESIAN_POINT('Origin',(0.,-3.5,0.));
#146=CARTESIAN_POINT('',(-3.39839486763391E-15,-7.,-27.75));
#147=CARTESIAN_POINT('',(-3.39839486763391E-15,-3.5,-27.75));
#148=CARTESIAN_POINT('Origin',(0.,-7.,0.));
#149=CARTESIAN_POINT('Origin',(0.,-7.,34.));
#150=CARTESIAN_POINT('',(-4.163799117101E-15,-7.,-34.));
#151=CARTESIAN_POINT('Origin',(0.,-7.,0.));
#152=CARTESIAN_POINT('Origin',(0.,-5.,0.));
#153=CARTESIAN_POINT('',(-3.73517273739943E-15,-3.,-30.5));
#154=CARTESIAN_POINT('Origin',(0.,-3.,0.));
#155=CARTESIAN_POINT('',(-3.94948592725021E-15,-5.,-32.25));
#156=CARTESIAN_POINT('Origin',(0.,-1.5,0.));
#157=CARTESIAN_POINT('',(-3.73517273739943E-15,-1.5,-30.5));
#158=CARTESIAN_POINT('',(0.,0.,0.));
#159=UNCERTAINTY_MEASURE_WITH_UNIT(LENGTH_MEASURE(0.01),#165,
'DISTANCE_ACCURACY_VALUE',
'Maximum model space distance between geometric entities at asserted c
onnectivities');
#160=UNCERTAINTY_MEASURE_WITH_UNIT(LENGTH_MEASURE(0.01),#165,
'DISTANCE_ACCURACY_VALUE',
'Maximum model space distance between geometric entities at asserted c
onnectivities');
#161=UNCERTAINTY_MEASURE_WITH_UNIT(LENGTH_MEASURE(0.01),#165,
'DISTANCE_ACCURACY_VALUE',
'Maximum model space distance between geometric entities at asserted c
onnectivities');
#162=(
GEOMETRIC_REPRESENTATION_CONTEXT(3)
GLOBAL_UNCERTAINTY_ASSIGNED_CONTEXT((#159))
GLOBAL_UNIT_ASSIGNED_CONTEXT((#165,#167,#168))
REPRESENTATION_CONTEXT('','3D')
);
#163=(
GEOMETRIC_REPRESENTATION_CONTEXT(3)
GLOBAL_UNCERTAINTY_ASSIGNED_CONTEXT((#160))
GLOBAL_UNIT_ASSIGNED_CONTEXT((#165,#167,#168))
REPRESENTATION_CONTEXT('','3D')
);
#164=(
GEOMETRIC_REPRESENTATION_CONTEXT(3)
GLOBAL_UNCERTAINTY_ASSIGNED_CONTEXT((#161))
GLOBAL_UNIT_ASSIGNED_CONTEXT((#165,#167,#168))
REPRESENTATION_CONTEXT('','3D')
);
#165=(
LENGTH_UNIT()
NAMED_UNIT(*)
SI_UNIT(.MILLI.,.METRE.)
);
#166=(
LENGTH_UNIT()
NAMED_UNIT(*)
SI_UNIT($,.METRE.)
);
#167=(
NAMED_UNIT(*)
PLANE_ANGLE_UNIT()
SI_UNIT($,.RADIAN.)
);
#168=(
NAMED_UNIT(*)
SI_UNIT($,.STERADIAN.)
SOLID_ANGLE_UNIT()
);
#169=SHAPE_DEFINITION_REPRESENTATION(#171,#174);
#170=SHAPE_DEFINITION_REPRESENTATION(#172,#175);
#171=PRODUCT_DEFINITION_SHAPE('',$,#177);
#172=PRODUCT_DEFINITION_SHAPE('',$,#178);
#173=PRODUCT_DEFINITION_SHAPE($,$,#14);
#174=SHAPE_REPRESENTATION('',(#96,#108),#162);
#175=SHAPE_REPRESENTATION('',(#97),#163);
#176=PRODUCT_DEFINITION_CONTEXT('part definition',#184,'design');
#177=PRODUCT_DEFINITION('cale disque','cale disque v4',#179,#176);
#178=PRODUCT_DEFINITION('Composant1','Composant1',#180,#176);
#179=PRODUCT_DEFINITION_FORMATION('',$,#186);
#180=PRODUCT_DEFINITION_FORMATION('',$,#187);
#181=PRODUCT_RELATED_PRODUCT_CATEGORY('cale disque v4','cale disque v4',
(#186));
#182=PRODUCT_RELATED_PRODUCT_CATEGORY('Composant1','Composant1',(#187));
#183=APPLICATION_PROTOCOL_DEFINITION('international standard',
'automotive_design',2009,#184);
#184=APPLICATION_CONTEXT(
'Core Data for Automotive Mechanical Design Process');
#185=PRODUCT_CONTEXT('part definition',#184,'mechanical');
#186=PRODUCT('cale disque','cale disque v4',$,(#185));
#187=PRODUCT('Composant1','Composant1',$,(#185));
#188=PRESENTATION_STYLE_ASSIGNMENT((#189));
#189=SURFACE_STYLE_USAGE(.BOTH.,#190);
#190=SURFACE_SIDE_STYLE('',(#191));
#191=SURFACE_STYLE_FILL_AREA(#192);
#192=FILL_AREA_STYLE('Acier - Satin\X\E9',(#193));
#193=FILL_AREA_STYLE_COLOUR('Acier - Satin\X\E9',#194);
#194=COLOUR_RGB('Acier - Satin\X\E9',0.627450980392157,0.627450980392157,
0.627450980392157);
ENDSEC;
END-ISO-10303-21;
