ISO-10303-21;
HEADER;
/* Generated by software containing ST-Developer
 * from STEP Tools, Inc. (www.steptools.com) 
 */

FILE_DESCRIPTION(
/* description */ (''),
/* implementation_level */ '2;1');

FILE_NAME(
/* name */ 'Pice_1 v1.step',
/* time_stamp */ '2023-05-16T20:13:55+02:00',
/* author */ (''),
/* organization */ (''),
/* preprocessor_version */ 'ST-DEVELOPER v19.2',
/* originating_system */ 'Autodesk Translation Framework v12.4.0.73',
/* authorisation */ '');

FILE_SCHEMA (('AUTOMOTIVE_DESIGN { 1 0 10303 214 3 1 1 }'));
ENDSEC;

DATA;
#10=MECHANICAL_DESIGN_GEOMETRIC_PRESENTATION_REPRESENTATION('',(#13),#367);
#11=SHAPE_REPRESENTATION_RELATIONSHIP('SRR','None',#374,#12);
#12=ADVANCED_BREP_SHAPE_REPRESENTATION('',(#14),#366);
#13=STYLED_ITEM('',(#383),#14);
#14=MANIFOLD_SOLID_BREP('Corps1',#211);
#15=FACE_BOUND('',#45,.T.);
#16=FACE_BOUND('',#51,.T.);
#17=FACE_BOUND('',#54,.T.);
#18=PLANE('',#228);
#19=PLANE('',#234);
#20=PLANE('',#235);
#21=PLANE('',#236);
#22=PLANE('',#240);
#23=PLANE('',#241);
#24=PLANE('',#242);
#25=PLANE('',#243);
#26=PLANE('',#244);
#27=PLANE('',#245);
#28=FACE_OUTER_BOUND('',#41,.T.);
#29=FACE_OUTER_BOUND('',#42,.T.);
#30=FACE_OUTER_BOUND('',#43,.T.);
#31=FACE_OUTER_BOUND('',#44,.T.);
#32=FACE_OUTER_BOUND('',#46,.T.);
#33=FACE_OUTER_BOUND('',#47,.T.);
#34=FACE_OUTER_BOUND('',#48,.T.);
#35=FACE_OUTER_BOUND('',#49,.T.);
#36=FACE_OUTER_BOUND('',#50,.T.);
#37=FACE_OUTER_BOUND('',#52,.T.);
#38=FACE_OUTER_BOUND('',#53,.T.);
#39=FACE_OUTER_BOUND('',#55,.T.);
#40=FACE_OUTER_BOUND('',#56,.T.);
#41=EDGE_LOOP('',(#143,#144,#145,#146));
#42=EDGE_LOOP('',(#147));
#43=EDGE_LOOP('',(#148,#149,#150,#151,#152,#153));
#44=EDGE_LOOP('',(#154));
#45=EDGE_LOOP('',(#155));
#46=EDGE_LOOP('',(#156,#157,#158));
#47=EDGE_LOOP('',(#159,#160,#161,#162));
#48=EDGE_LOOP('',(#163,#164,#165,#166));
#49=EDGE_LOOP('',(#167,#168,#169,#170));
#50=EDGE_LOOP('',(#171,#172,#173,#174,#175));
#51=EDGE_LOOP('',(#176));
#52=EDGE_LOOP('',(#177,#178,#179,#180,#181));
#53=EDGE_LOOP('',(#182,#183,#184,#185,#186));
#54=EDGE_LOOP('',(#187));
#55=EDGE_LOOP('',(#188,#189,#190));
#56=EDGE_LOOP('',(#191,#192,#193,#194));
#57=LINE('',#313,#75);
#58=LINE('',#320,#76);
#59=LINE('',#329,#77);
#60=LINE('',#330,#78);
#61=LINE('',#333,#79);
#62=LINE('',#335,#80);
#63=LINE('',#336,#81);
#64=LINE('',#341,#82);
#65=LINE('',#346,#83);
#66=LINE('',#347,#84);
#67=LINE('',#348,#85);
#68=LINE('',#351,#86);
#69=LINE('',#353,#87);
#70=LINE('',#354,#88);
#71=LINE('',#357,#89);
#72=LINE('',#358,#90);
#73=LINE('',#359,#91);
#74=LINE('',#361,#92);
#75=VECTOR('',#252,2.);
#76=VECTOR('',#261,3.48);
#77=VECTOR('',#272,10.);
#78=VECTOR('',#273,10.);
#79=VECTOR('',#276,10.);
#80=VECTOR('',#277,10.);
#81=VECTOR('',#278,10.);
#82=VECTOR('',#283,1.5);
#83=VECTOR('',#288,10.);
#84=VECTOR('',#289,10.);
#85=VECTOR('',#290,10.);
#86=VECTOR('',#293,10.);
#87=VECTOR('',#294,10.);
#88=VECTOR('',#295,10.);
#89=VECTOR('',#298,10.);
#90=VECTOR('',#299,10.);
#91=VECTOR('',#300,10.);
#92=VECTOR('',#303,10.);
#93=CIRCLE('',#226,1.954);
#94=CIRCLE('',#227,1.954);
#95=CIRCLE('',#230,3.48);
#96=CIRCLE('',#231,3.48);
#97=CIRCLE('',#232,3.48);
#98=CIRCLE('',#233,3.48);
#99=CIRCLE('',#238,1.5);
#100=CIRCLE('',#239,1.5);
#101=VERTEX_POINT('',#310);
#102=VERTEX_POINT('',#312);
#103=VERTEX_POINT('',#317);
#104=VERTEX_POINT('',#319);
#105=VERTEX_POINT('',#321);
#106=VERTEX_POINT('',#323);
#107=VERTEX_POINT('',#328);
#108=VERTEX_POINT('',#332);
#109=VERTEX_POINT('',#334);
#110=VERTEX_POINT('',#338);
#111=VERTEX_POINT('',#340);
#112=VERTEX_POINT('',#344);
#113=VERTEX_POINT('',#345);
#114=VERTEX_POINT('',#350);
#115=VERTEX_POINT('',#352);
#116=VERTEX_POINT('',#356);
#117=EDGE_CURVE('',#101,#101,#93,.F.);
#118=EDGE_CURVE('',#101,#102,#57,.T.);
#119=EDGE_CURVE('',#102,#102,#94,.T.);
#120=EDGE_CURVE('',#103,#103,#95,.T.);
#121=EDGE_CURVE('',#103,#104,#58,.T.);
#122=EDGE_CURVE('',#105,#104,#96,.T.);
#123=EDGE_CURVE('',#105,#106,#97,.T.);
#124=EDGE_CURVE('',#104,#106,#98,.T.);
#125=EDGE_CURVE('',#107,#106,#59,.T.);
#126=EDGE_CURVE('',#105,#107,#60,.T.);
#127=EDGE_CURVE('',#104,#108,#61,.T.);
#128=EDGE_CURVE('',#108,#109,#62,.T.);
#129=EDGE_CURVE('',#109,#105,#63,.T.);
#130=EDGE_CURVE('',#110,#110,#99,.T.);
#131=EDGE_CURVE('',#110,#111,#64,.T.);
#132=EDGE_CURVE('',#111,#111,#100,.T.);
#133=EDGE_CURVE('',#112,#113,#65,.T.);
#134=EDGE_CURVE('',#113,#109,#66,.T.);
#135=EDGE_CURVE('',#112,#108,#67,.T.);
#136=EDGE_CURVE('',#114,#112,#68,.T.);
#137=EDGE_CURVE('',#115,#104,#69,.T.);
#138=EDGE_CURVE('',#114,#115,#70,.T.);
#139=EDGE_CURVE('',#116,#114,#71,.T.);
#140=EDGE_CURVE('',#106,#115,#72,.T.);
#141=EDGE_CURVE('',#116,#107,#73,.T.);
#142=EDGE_CURVE('',#113,#116,#74,.T.);
#143=ORIENTED_EDGE('',*,*,#117,.F.);
#144=ORIENTED_EDGE('',*,*,#118,.T.);
#145=ORIENTED_EDGE('',*,*,#119,.F.);
#146=ORIENTED_EDGE('',*,*,#118,.F.);
#147=ORIENTED_EDGE('',*,*,#117,.T.);
#148=ORIENTED_EDGE('',*,*,#120,.F.);
#149=ORIENTED_EDGE('',*,*,#121,.T.);
#150=ORIENTED_EDGE('',*,*,#122,.F.);
#151=ORIENTED_EDGE('',*,*,#123,.T.);
#152=ORIENTED_EDGE('',*,*,#124,.F.);
#153=ORIENTED_EDGE('',*,*,#121,.F.);
#154=ORIENTED_EDGE('',*,*,#120,.T.);
#155=ORIENTED_EDGE('',*,*,#119,.T.);
#156=ORIENTED_EDGE('',*,*,#125,.T.);
#157=ORIENTED_EDGE('',*,*,#123,.F.);
#158=ORIENTED_EDGE('',*,*,#126,.T.);
#159=ORIENTED_EDGE('',*,*,#122,.T.);
#160=ORIENTED_EDGE('',*,*,#127,.T.);
#161=ORIENTED_EDGE('',*,*,#128,.T.);
#162=ORIENTED_EDGE('',*,*,#129,.T.);
#163=ORIENTED_EDGE('',*,*,#130,.F.);
#164=ORIENTED_EDGE('',*,*,#131,.T.);
#165=ORIENTED_EDGE('',*,*,#132,.F.);
#166=ORIENTED_EDGE('',*,*,#131,.F.);
#167=ORIENTED_EDGE('',*,*,#133,.T.);
#168=ORIENTED_EDGE('',*,*,#134,.T.);
#169=ORIENTED_EDGE('',*,*,#128,.F.);
#170=ORIENTED_EDGE('',*,*,#135,.F.);
#171=ORIENTED_EDGE('',*,*,#136,.T.);
#172=ORIENTED_EDGE('',*,*,#135,.T.);
#173=ORIENTED_EDGE('',*,*,#127,.F.);
#174=ORIENTED_EDGE('',*,*,#137,.F.);
#175=ORIENTED_EDGE('',*,*,#138,.F.);
#176=ORIENTED_EDGE('',*,*,#132,.T.);
#177=ORIENTED_EDGE('',*,*,#139,.T.);
#178=ORIENTED_EDGE('',*,*,#138,.T.);
#179=ORIENTED_EDGE('',*,*,#140,.F.);
#180=ORIENTED_EDGE('',*,*,#125,.F.);
#181=ORIENTED_EDGE('',*,*,#141,.F.);
#182=ORIENTED_EDGE('',*,*,#142,.T.);
#183=ORIENTED_EDGE('',*,*,#141,.T.);
#184=ORIENTED_EDGE('',*,*,#126,.F.);
#185=ORIENTED_EDGE('',*,*,#129,.F.);
#186=ORIENTED_EDGE('',*,*,#134,.F.);
#187=ORIENTED_EDGE('',*,*,#130,.T.);
#188=ORIENTED_EDGE('',*,*,#124,.T.);
#189=ORIENTED_EDGE('',*,*,#140,.T.);
#190=ORIENTED_EDGE('',*,*,#137,.T.);
#191=ORIENTED_EDGE('',*,*,#142,.F.);
#192=ORIENTED_EDGE('',*,*,#133,.F.);
#193=ORIENTED_EDGE('',*,*,#136,.F.);
#194=ORIENTED_EDGE('',*,*,#139,.F.);
#195=CYLINDRICAL_SURFACE('',#225,1.954);
#196=CYLINDRICAL_SURFACE('',#229,3.48);
#197=CYLINDRICAL_SURFACE('',#237,1.5);
#198=ADVANCED_FACE('',(#28),#195,.T.);
#199=ADVANCED_FACE('',(#29),#18,.T.);
#200=ADVANCED_FACE('',(#30),#196,.T.);
#201=ADVANCED_FACE('',(#31,#15),#19,.T.);
#202=ADVANCED_FACE('',(#32),#20,.F.);
#203=ADVANCED_FACE('',(#33),#21,.T.);
#204=ADVANCED_FACE('',(#34),#197,.F.);
#205=ADVANCED_FACE('',(#35),#22,.T.);
#206=ADVANCED_FACE('',(#36,#16),#23,.T.);
#207=ADVANCED_FACE('',(#37),#24,.T.);
#208=ADVANCED_FACE('',(#38,#17),#25,.T.);
#209=ADVANCED_FACE('',(#39),#26,.T.);
#210=ADVANCED_FACE('',(#40),#27,.F.);
#211=CLOSED_SHELL('',(#198,#199,#200,#201,#202,#203,#204,#205,#206,#207,
#208,#209,#210));
#212=DERIVED_UNIT_ELEMENT(#214,1.);
#213=DERIVED_UNIT_ELEMENT(#369,-3.);
#214=(
MASS_UNIT()
NAMED_UNIT(*)
SI_UNIT(.KILO.,.GRAM.)
);
#215=DERIVED_UNIT((#212,#213));
#216=MEASURE_REPRESENTATION_ITEM('density measure',
POSITIVE_RATIO_MEASURE(7850.),#215);
#217=PROPERTY_DEFINITION_REPRESENTATION(#222,#219);
#218=PROPERTY_DEFINITION_REPRESENTATION(#223,#220);
#219=REPRESENTATION('material name',(#221),#366);
#220=REPRESENTATION('density',(#216),#366);
#221=DESCRIPTIVE_REPRESENTATION_ITEM('Acier','Acier');
#222=PROPERTY_DEFINITION('material property','material name',#376);
#223=PROPERTY_DEFINITION('material property','density of part',#376);
#224=AXIS2_PLACEMENT_3D('',#308,#246,#247);
#225=AXIS2_PLACEMENT_3D('',#309,#248,#249);
#226=AXIS2_PLACEMENT_3D('',#311,#250,#251);
#227=AXIS2_PLACEMENT_3D('',#314,#253,#254);
#228=AXIS2_PLACEMENT_3D('',#315,#255,#256);
#229=AXIS2_PLACEMENT_3D('',#316,#257,#258);
#230=AXIS2_PLACEMENT_3D('',#318,#259,#260);
#231=AXIS2_PLACEMENT_3D('',#322,#262,#263);
#232=AXIS2_PLACEMENT_3D('',#324,#264,#265);
#233=AXIS2_PLACEMENT_3D('',#325,#266,#267);
#234=AXIS2_PLACEMENT_3D('',#326,#268,#269);
#235=AXIS2_PLACEMENT_3D('',#327,#270,#271);
#236=AXIS2_PLACEMENT_3D('',#331,#274,#275);
#237=AXIS2_PLACEMENT_3D('',#337,#279,#280);
#238=AXIS2_PLACEMENT_3D('',#339,#281,#282);
#239=AXIS2_PLACEMENT_3D('',#342,#284,#285);
#240=AXIS2_PLACEMENT_3D('',#343,#286,#287);
#241=AXIS2_PLACEMENT_3D('',#349,#291,#292);
#242=AXIS2_PLACEMENT_3D('',#355,#296,#297);
#243=AXIS2_PLACEMENT_3D('',#360,#301,#302);
#244=AXIS2_PLACEMENT_3D('',#362,#304,#305);
#245=AXIS2_PLACEMENT_3D('',#363,#306,#307);
#246=DIRECTION('axis',(0.,0.,1.));
#247=DIRECTION('refdir',(1.,0.,0.));
#248=DIRECTION('center_axis',(0.,0.,1.));
#249=DIRECTION('ref_axis',(-1.,0.,0.));
#250=DIRECTION('center_axis',(0.,0.,-1.));
#251=DIRECTION('ref_axis',(-1.,0.,0.));
#252=DIRECTION('',(0.,0.,-1.));
#253=DIRECTION('center_axis',(0.,0.,-1.));
#254=DIRECTION('ref_axis',(-1.,0.,0.));
#255=DIRECTION('center_axis',(0.,0.,1.));
#256=DIRECTION('ref_axis',(-1.,0.,0.));
#257=DIRECTION('center_axis',(0.,0.,1.));
#258=DIRECTION('ref_axis',(-1.,0.,0.));
#259=DIRECTION('center_axis',(0.,0.,1.));
#260=DIRECTION('ref_axis',(-1.,0.,0.));
#261=DIRECTION('',(0.,0.,-1.));
#262=DIRECTION('center_axis',(0.,0.,-1.));
#263=DIRECTION('ref_axis',(-1.,0.,0.));
#264=DIRECTION('center_axis',(0.,0.,1.));
#265=DIRECTION('ref_axis',(-1.,0.,0.));
#266=DIRECTION('center_axis',(0.,0.,-1.));
#267=DIRECTION('ref_axis',(-1.,0.,0.));
#268=DIRECTION('center_axis',(0.,0.,1.));
#269=DIRECTION('ref_axis',(-1.,0.,0.));
#270=DIRECTION('center_axis',(0.,0.,1.));
#271=DIRECTION('ref_axis',(-1.,0.,0.));
#272=DIRECTION('',(1.,0.,0.));
#273=DIRECTION('',(0.,-1.,0.));
#274=DIRECTION('center_axis',(0.,0.,1.));
#275=DIRECTION('ref_axis',(1.,0.,0.));
#276=DIRECTION('',(0.,1.,0.));
#277=DIRECTION('',(-1.,-2.22936350326337E-16,0.));
#278=DIRECTION('',(0.,-1.,0.));
#279=DIRECTION('center_axis',(1.,0.,0.));
#280=DIRECTION('ref_axis',(0.,-1.,0.));
#281=DIRECTION('center_axis',(1.,0.,0.));
#282=DIRECTION('ref_axis',(0.,-1.,0.));
#283=DIRECTION('',(1.,0.,0.));
#284=DIRECTION('center_axis',(-1.,0.,0.));
#285=DIRECTION('ref_axis',(0.,-1.,0.));
#286=DIRECTION('center_axis',(-2.22936350326337E-16,1.,0.));
#287=DIRECTION('ref_axis',(-1.,-2.22936350326337E-16,0.));
#288=DIRECTION('',(-1.,-2.22936350326337E-16,0.));
#289=DIRECTION('',(0.,0.,1.));
#290=DIRECTION('',(0.,0.,1.));
#291=DIRECTION('center_axis',(1.,0.,0.));
#292=DIRECTION('ref_axis',(0.,1.,0.));
#293=DIRECTION('',(0.,1.,0.));
#294=DIRECTION('',(0.,1.,0.));
#295=DIRECTION('',(0.,0.,1.));
#296=DIRECTION('center_axis',(0.,-1.,0.));
#297=DIRECTION('ref_axis',(1.,0.,0.));
#298=DIRECTION('',(1.,0.,0.));
#299=DIRECTION('',(1.,0.,0.));
#300=DIRECTION('',(0.,0.,1.));
#301=DIRECTION('center_axis',(-1.,0.,0.));
#302=DIRECTION('ref_axis',(0.,-1.,0.));
#303=DIRECTION('',(0.,-1.,0.));
#304=DIRECTION('center_axis',(0.,0.,1.));
#305=DIRECTION('ref_axis',(1.,0.,0.));
#306=DIRECTION('center_axis',(0.,0.,1.));
#307=DIRECTION('ref_axis',(1.,0.,0.));
#308=CARTESIAN_POINT('',(0.,0.,0.));
#309=CARTESIAN_POINT('Origin',(1.50000002235174,1.50000002235174,20.));
#310=CARTESIAN_POINT('',(3.45400002235174,1.50000002235174,28.));
#311=CARTESIAN_POINT('Origin',(1.50000002235174,1.50000002235174,28.));
#312=CARTESIAN_POINT('',(3.45400002235174,1.50000002235174,20.));
#313=CARTESIAN_POINT('',(3.45400002235174,1.50000002235174,20.));
#314=CARTESIAN_POINT('Origin',(1.50000002235174,1.50000002235174,20.));
#315=CARTESIAN_POINT('Origin',(1.50000002235174,1.50000002235174,28.));
#316=CARTESIAN_POINT('Origin',(1.50000002235174,1.50000002235174,13.));
#317=CARTESIAN_POINT('',(4.98000002235174,1.50000002235174,20.));
#318=CARTESIAN_POINT('Origin',(1.50000002235174,1.50000002235174,20.));
#319=CARTESIAN_POINT('',(4.98000002235174,1.50000002235174,13.));
#320=CARTESIAN_POINT('',(4.98000002235174,1.50000002235174,13.));
#321=CARTESIAN_POINT('',(0.,4.64012739762568,13.));
#322=CARTESIAN_POINT('Origin',(1.50000002235174,1.50000002235174,13.));
#323=CARTESIAN_POINT('',(4.64012739762568,0.,13.));
#324=CARTESIAN_POINT('Origin',(1.50000002235174,1.50000002235174,13.));
#325=CARTESIAN_POINT('Origin',(1.50000002235174,1.50000002235174,13.));
#326=CARTESIAN_POINT('Origin',(1.50000002235174,1.50000002235174,20.));
#327=CARTESIAN_POINT('Origin',(1.50000002235174,1.50000002235174,13.));
#328=CARTESIAN_POINT('',(0.,0.,13.));
#329=CARTESIAN_POINT('',(0.,0.,13.));
#330=CARTESIAN_POINT('',(0.,6.,13.));
#331=CARTESIAN_POINT('Origin',(2.49,3.,13.));
#332=CARTESIAN_POINT('',(4.98,6.,13.));
#333=CARTESIAN_POINT('',(4.98,0.,13.));
#334=CARTESIAN_POINT('',(0.,6.,13.));
#335=CARTESIAN_POINT('',(4.98,6.,13.));
#336=CARTESIAN_POINT('',(0.,6.,13.));
#337=CARTESIAN_POINT('Origin',(0.,3.00000004470348,6.00000008940697));
#338=CARTESIAN_POINT('',(0.,4.50000004470348,6.00000008940697));
#339=CARTESIAN_POINT('Origin',(0.,3.00000004470348,6.00000008940697));
#340=CARTESIAN_POINT('',(4.98,4.50000004470348,6.00000008940697));
#341=CARTESIAN_POINT('',(0.,4.50000004470348,6.00000008940697));
#342=CARTESIAN_POINT('Origin',(4.98,3.00000004470348,6.00000008940697));
#343=CARTESIAN_POINT('Origin',(4.98,6.,0.));
#344=CARTESIAN_POINT('',(4.98,6.,0.));
#345=CARTESIAN_POINT('',(0.,6.,0.));
#346=CARTESIAN_POINT('',(4.98,6.,0.));
#347=CARTESIAN_POINT('',(0.,6.,0.));
#348=CARTESIAN_POINT('',(4.98,6.,0.));
#349=CARTESIAN_POINT('Origin',(4.98,0.,0.));
#350=CARTESIAN_POINT('',(4.98,0.,0.));
#351=CARTESIAN_POINT('',(4.98,0.,0.));
#352=CARTESIAN_POINT('',(4.98,0.,13.));
#353=CARTESIAN_POINT('',(4.98,0.,13.));
#354=CARTESIAN_POINT('',(4.98,0.,0.));
#355=CARTESIAN_POINT('Origin',(0.,0.,0.));
#356=CARTESIAN_POINT('',(0.,0.,0.));
#357=CARTESIAN_POINT('',(0.,0.,0.));
#358=CARTESIAN_POINT('',(0.,0.,13.));
#359=CARTESIAN_POINT('',(0.,0.,0.));
#360=CARTESIAN_POINT('Origin',(0.,6.,0.));
#361=CARTESIAN_POINT('',(0.,6.,0.));
#362=CARTESIAN_POINT('Origin',(2.49,3.,13.));
#363=CARTESIAN_POINT('Origin',(2.49,3.,0.));
#364=UNCERTAINTY_MEASURE_WITH_UNIT(LENGTH_MEASURE(0.01),#368,
'DISTANCE_ACCURACY_VALUE',
'Maximum model space distance between geometric entities at asserted c
onnectivities');
#365=UNCERTAINTY_MEASURE_WITH_UNIT(LENGTH_MEASURE(0.01),#368,
'DISTANCE_ACCURACY_VALUE',
'Maximum model space distance between geometric entities at asserted c
onnectivities');
#366=(
GEOMETRIC_REPRESENTATION_CONTEXT(3)
GLOBAL_UNCERTAINTY_ASSIGNED_CONTEXT((#364))
GLOBAL_UNIT_ASSIGNED_CONTEXT((#368,#370,#371))
REPRESENTATION_CONTEXT('','3D')
);
#367=(
GEOMETRIC_REPRESENTATION_CONTEXT(3)
GLOBAL_UNCERTAINTY_ASSIGNED_CONTEXT((#365))
GLOBAL_UNIT_ASSIGNED_CONTEXT((#368,#370,#371))
REPRESENTATION_CONTEXT('','3D')
);
#368=(
LENGTH_UNIT()
NAMED_UNIT(*)
SI_UNIT(.MILLI.,.METRE.)
);
#369=(
LENGTH_UNIT()
NAMED_UNIT(*)
SI_UNIT($,.METRE.)
);
#370=(
NAMED_UNIT(*)
PLANE_ANGLE_UNIT()
SI_UNIT($,.RADIAN.)
);
#371=(
NAMED_UNIT(*)
SI_UNIT($,.STERADIAN.)
SOLID_ANGLE_UNIT()
);
#372=SHAPE_DEFINITION_REPRESENTATION(#373,#374);
#373=PRODUCT_DEFINITION_SHAPE('',$,#376);
#374=SHAPE_REPRESENTATION('',(#224),#366);
#375=PRODUCT_DEFINITION_CONTEXT('part definition',#380,'design');
#376=PRODUCT_DEFINITION('Pi\X\E8ce_1','Pi\X\E8ce_1 v1',#377,#375);
#377=PRODUCT_DEFINITION_FORMATION('',$,#382);
#378=PRODUCT_RELATED_PRODUCT_CATEGORY('Pi\X\E8ce_1 v1','Pi\X\E8ce_1 v1',
(#382));
#379=APPLICATION_PROTOCOL_DEFINITION('international standard',
'automotive_design',2009,#380);
#380=APPLICATION_CONTEXT(
'Core Data for Automotive Mechanical Design Process');
#381=PRODUCT_CONTEXT('part definition',#380,'mechanical');
#382=PRODUCT('Pi\X\E8ce_1','Pi\X\E8ce_1 v1',$,(#381));
#383=PRESENTATION_STYLE_ASSIGNMENT((#384));
#384=SURFACE_STYLE_USAGE(.BOTH.,#385);
#385=SURFACE_SIDE_STYLE('',(#386));
#386=SURFACE_STYLE_FILL_AREA(#387);
#387=FILL_AREA_STYLE('Acier - Satin\X\E9',(#388));
#388=FILL_AREA_STYLE_COLOUR('Acier - Satin\X\E9',#389);
#389=COLOUR_RGB('Acier - Satin\X\E9',0.627450980392157,0.627450980392157,
0.627450980392157);
ENDSEC;
END-ISO-10303-21;
