ISO-10303-21;
HEADER;
/* Generated by software containing ST-Developer
 * from STEP Tools, Inc. (www.steptools.com) 
 */

FILE_DESCRIPTION(
/* description */ (''),
/* implementation_level */ '2;1');

FILE_NAME(
/* name */ 'Axe centrage V2.stp',
/* time_stamp */ '2023-03-29T16:47:59+02:00',
/* author */ ('ethomas'),
/* organization */ (''),
/* preprocessor_version */ 'ST-DEVELOPER v19.2',
/* originating_system */ 'Autodesk Inventor 2023',
/* authorisation */ '');

FILE_SCHEMA (('AUTOMOTIVE_DESIGN { 1 0 10303 214 3 1 1 }'));
ENDSEC;

DATA;
#10=MECHANICAL_DESIGN_GEOMETRIC_PRESENTATION_REPRESENTATION('',(#13),#239);
#11=SHAPE_REPRESENTATION_RELATIONSHIP('SRR','None',#246,#12);
#12=ADVANCED_BREP_SHAPE_REPRESENTATION('',(#14),#238);
#13=STYLED_ITEM('',(#255),#14);
#14=MANIFOLD_SOLID_BREP('Solide1',#123);
#15=CONICAL_SURFACE('',#155,1.29702525,1.02974425867665);
#16=LINE('',#213,#21);
#17=LINE('',#220,#22);
#18=LINE('',#225,#23);
#19=LINE('',#229,#24);
#20=LINE('',#232,#25);
#21=VECTOR('',#175,4.5);
#22=VECTOR('',#184,5.);
#23=VECTOR('',#189,1.29702525);
#24=VECTOR('',#194,2.5940505);
#25=VECTOR('',#197,5.);
#26=CYLINDRICAL_SURFACE('',#149,4.5);
#27=CYLINDRICAL_SURFACE('',#153,5.);
#28=CYLINDRICAL_SURFACE('',#157,2.5940505);
#29=CYLINDRICAL_SURFACE('',#159,5.);
#30=FACE_BOUND('',#43,.T.);
#31=FACE_BOUND('',#46,.T.);
#32=FACE_BOUND('',#52,.T.);
#33=FACE_OUTER_BOUND('',#42,.T.);
#34=FACE_OUTER_BOUND('',#44,.T.);
#35=FACE_OUTER_BOUND('',#45,.T.);
#36=FACE_OUTER_BOUND('',#47,.T.);
#37=FACE_OUTER_BOUND('',#48,.T.);
#38=FACE_OUTER_BOUND('',#49,.T.);
#39=FACE_OUTER_BOUND('',#50,.T.);
#40=FACE_OUTER_BOUND('',#51,.T.);
#41=FACE_OUTER_BOUND('',#53,.T.);
#42=EDGE_LOOP('',(#84));
#43=EDGE_LOOP('',(#85));
#44=EDGE_LOOP('',(#86,#87,#88,#89));
#45=EDGE_LOOP('',(#90));
#46=EDGE_LOOP('',(#91));
#47=EDGE_LOOP('',(#92,#93,#94,#95));
#48=EDGE_LOOP('',(#96,#97,#98));
#49=EDGE_LOOP('',(#99,#100,#101,#102));
#50=EDGE_LOOP('',(#103,#104,#105,#106));
#51=EDGE_LOOP('',(#107));
#52=EDGE_LOOP('',(#108));
#53=EDGE_LOOP('',(#109));
#54=CIRCLE('',#147,5.);
#55=CIRCLE('',#148,4.5);
#56=CIRCLE('',#150,4.5);
#57=CIRCLE('',#152,5.);
#58=CIRCLE('',#154,5.);
#59=CIRCLE('',#156,2.5940505);
#60=CIRCLE('',#158,2.5940505);
#61=CIRCLE('',#160,5.);
#62=VERTEX_POINT('',#206);
#63=VERTEX_POINT('',#208);
#64=VERTEX_POINT('',#211);
#65=VERTEX_POINT('',#215);
#66=VERTEX_POINT('',#218);
#67=VERTEX_POINT('',#222);
#68=VERTEX_POINT('',#224);
#69=VERTEX_POINT('',#227);
#70=VERTEX_POINT('',#231);
#71=EDGE_CURVE('',#62,#62,#54,.T.);
#72=EDGE_CURVE('',#63,#63,#55,.T.);
#73=EDGE_CURVE('',#64,#64,#56,.T.);
#74=EDGE_CURVE('',#64,#63,#16,.T.);
#75=EDGE_CURVE('',#65,#65,#57,.T.);
#76=EDGE_CURVE('',#66,#66,#58,.T.);
#77=EDGE_CURVE('',#66,#65,#17,.T.);
#78=EDGE_CURVE('',#67,#67,#59,.T.);
#79=EDGE_CURVE('',#67,#68,#18,.T.);
#80=EDGE_CURVE('',#69,#69,#60,.T.);
#81=EDGE_CURVE('',#69,#67,#19,.T.);
#82=EDGE_CURVE('',#62,#70,#20,.T.);
#83=EDGE_CURVE('',#70,#70,#61,.T.);
#84=ORIENTED_EDGE('',*,*,#71,.F.);
#85=ORIENTED_EDGE('',*,*,#72,.T.);
#86=ORIENTED_EDGE('',*,*,#73,.T.);
#87=ORIENTED_EDGE('',*,*,#74,.T.);
#88=ORIENTED_EDGE('',*,*,#72,.F.);
#89=ORIENTED_EDGE('',*,*,#74,.F.);
#90=ORIENTED_EDGE('',*,*,#75,.F.);
#91=ORIENTED_EDGE('',*,*,#73,.F.);
#92=ORIENTED_EDGE('',*,*,#76,.F.);
#93=ORIENTED_EDGE('',*,*,#77,.T.);
#94=ORIENTED_EDGE('',*,*,#75,.T.);
#95=ORIENTED_EDGE('',*,*,#77,.F.);
#96=ORIENTED_EDGE('',*,*,#78,.T.);
#97=ORIENTED_EDGE('',*,*,#79,.T.);
#98=ORIENTED_EDGE('',*,*,#79,.F.);
#99=ORIENTED_EDGE('',*,*,#80,.F.);
#100=ORIENTED_EDGE('',*,*,#81,.T.);
#101=ORIENTED_EDGE('',*,*,#78,.F.);
#102=ORIENTED_EDGE('',*,*,#81,.F.);
#103=ORIENTED_EDGE('',*,*,#71,.T.);
#104=ORIENTED_EDGE('',*,*,#82,.T.);
#105=ORIENTED_EDGE('',*,*,#83,.T.);
#106=ORIENTED_EDGE('',*,*,#82,.F.);
#107=ORIENTED_EDGE('',*,*,#76,.T.);
#108=ORIENTED_EDGE('',*,*,#80,.T.);
#109=ORIENTED_EDGE('',*,*,#83,.F.);
#110=PLANE('',#146);
#111=PLANE('',#151);
#112=PLANE('',#161);
#113=PLANE('',#162);
#114=ADVANCED_FACE('',(#33,#30),#110,.F.);
#115=ADVANCED_FACE('',(#34),#26,.T.);
#116=ADVANCED_FACE('',(#35,#31),#111,.F.);
#117=ADVANCED_FACE('',(#36),#27,.T.);
#118=ADVANCED_FACE('',(#37),#15,.F.);
#119=ADVANCED_FACE('',(#38),#28,.F.);
#120=ADVANCED_FACE('',(#39),#29,.T.);
#121=ADVANCED_FACE('',(#40,#32),#112,.T.);
#122=ADVANCED_FACE('',(#41),#113,.F.);
#123=CLOSED_SHELL('',(#114,#115,#116,#117,#118,#119,#120,#121,#122));
#124=DERIVED_UNIT_ELEMENT(#127,1.);
#125=DERIVED_UNIT_ELEMENT(#241,-3.);
#126=DIMENSIONAL_EXPONENTS(0.,1.,0.,0.,0.,0.,0.);
#127=(
CONVERSION_BASED_UNIT('gram',#129)
MASS_UNIT()
NAMED_UNIT(#126)
);
#128=(
MASS_UNIT()
NAMED_UNIT(*)
SI_UNIT(.KILO.,.GRAM.)
);
#129=MASS_MEASURE_WITH_UNIT(MASS_MEASURE(0.001),#128);
#130=DERIVED_UNIT((#124,#125));
#131=MEASURE_REPRESENTATION_ITEM('density measure',
POSITIVE_RATIO_MEASURE(7.85),#130);
#132=PROPERTY_DEFINITION_REPRESENTATION(#137,#134);
#133=PROPERTY_DEFINITION_REPRESENTATION(#138,#135);
#134=REPRESENTATION('material name',(#136),#238);
#135=REPRESENTATION('density',(#131),#238);
#136=DESCRIPTIVE_REPRESENTATION_ITEM('Acier','Acier');
#137=PROPERTY_DEFINITION('material property','material name',#248);
#138=PROPERTY_DEFINITION('material property','density of part',#248);
#139=DATE_TIME_ROLE('creation_date');
#140=APPLIED_DATE_AND_TIME_ASSIGNMENT(#141,#139,(#248));
#141=DATE_AND_TIME(#142,#143);
#142=CALENDAR_DATE(2023,28,3);
#143=LOCAL_TIME(0,0,0.,#144);
#144=COORDINATED_UNIVERSAL_TIME_OFFSET(0,0,.BEHIND.);
#145=AXIS2_PLACEMENT_3D('',#204,#163,#164);
#146=AXIS2_PLACEMENT_3D('',#205,#165,#166);
#147=AXIS2_PLACEMENT_3D('',#207,#167,#168);
#148=AXIS2_PLACEMENT_3D('',#209,#169,#170);
#149=AXIS2_PLACEMENT_3D('',#210,#171,#172);
#150=AXIS2_PLACEMENT_3D('',#212,#173,#174);
#151=AXIS2_PLACEMENT_3D('',#214,#176,#177);
#152=AXIS2_PLACEMENT_3D('',#216,#178,#179);
#153=AXIS2_PLACEMENT_3D('',#217,#180,#181);
#154=AXIS2_PLACEMENT_3D('',#219,#182,#183);
#155=AXIS2_PLACEMENT_3D('',#221,#185,#186);
#156=AXIS2_PLACEMENT_3D('',#223,#187,#188);
#157=AXIS2_PLACEMENT_3D('',#226,#190,#191);
#158=AXIS2_PLACEMENT_3D('',#228,#192,#193);
#159=AXIS2_PLACEMENT_3D('',#230,#195,#196);
#160=AXIS2_PLACEMENT_3D('',#233,#198,#199);
#161=AXIS2_PLACEMENT_3D('',#234,#200,#201);
#162=AXIS2_PLACEMENT_3D('',#235,#202,#203);
#163=DIRECTION('axis',(0.,0.,1.));
#164=DIRECTION('refdir',(1.,0.,0.));
#165=DIRECTION('center_axis',(0.,0.,-1.));
#166=DIRECTION('ref_axis',(-1.,0.,0.));
#167=DIRECTION('center_axis',(0.,0.,-1.));
#168=DIRECTION('ref_axis',(1.,0.,0.));
#169=DIRECTION('center_axis',(0.,0.,-1.));
#170=DIRECTION('ref_axis',(1.,0.,0.));
#171=DIRECTION('center_axis',(0.,0.,-1.));
#172=DIRECTION('ref_axis',(0.,1.,0.));
#173=DIRECTION('center_axis',(0.,0.,-1.));
#174=DIRECTION('ref_axis',(1.,0.,0.));
#175=DIRECTION('',(0.,0.,-1.));
#176=DIRECTION('center_axis',(0.,0.,1.));
#177=DIRECTION('ref_axis',(1.,0.,0.));
#178=DIRECTION('center_axis',(0.,0.,1.));
#179=DIRECTION('ref_axis',(1.,0.,0.));
#180=DIRECTION('center_axis',(0.,0.,1.));
#181=DIRECTION('ref_axis',(1.,0.,0.));
#182=DIRECTION('center_axis',(0.,0.,1.));
#183=DIRECTION('ref_axis',(1.,0.,0.));
#184=DIRECTION('',(0.,0.,-1.));
#185=DIRECTION('center_axis',(0.,0.,1.));
#186=DIRECTION('ref_axis',(1.,0.,0.));
#187=DIRECTION('center_axis',(0.,0.,1.));
#188=DIRECTION('ref_axis',(1.,0.,0.));
#189=DIRECTION('',(0.857167300702112,1.04972719113862E-16,-0.515038074910054));
#190=DIRECTION('center_axis',(0.,0.,1.));
#191=DIRECTION('ref_axis',(1.,0.,0.));
#192=DIRECTION('center_axis',(0.,0.,-1.));
#193=DIRECTION('ref_axis',(1.,0.,0.));
#194=DIRECTION('',(0.,0.,-1.));
#195=DIRECTION('center_axis',(0.,0.,1.));
#196=DIRECTION('ref_axis',(1.,0.,0.));
#197=DIRECTION('',(0.,0.,-1.));
#198=DIRECTION('center_axis',(0.,0.,1.));
#199=DIRECTION('ref_axis',(1.,0.,0.));
#200=DIRECTION('center_axis',(0.,0.,1.));
#201=DIRECTION('ref_axis',(1.,0.,0.));
#202=DIRECTION('center_axis',(0.,0.,1.));
#203=DIRECTION('ref_axis',(1.,0.,0.));
#204=CARTESIAN_POINT('',(0.,0.,0.));
#205=CARTESIAN_POINT('Origin',(0.,4.5,44.25));
#206=CARTESIAN_POINT('',(-5.,6.12323399573677E-16,44.25));
#207=CARTESIAN_POINT('Origin',(0.,0.,44.25));
#208=CARTESIAN_POINT('',(-5.51091059616309E-16,-4.5,44.25));
#209=CARTESIAN_POINT('Origin',(0.,0.,44.25));
#210=CARTESIAN_POINT('Origin',(0.,0.,45.));
#211=CARTESIAN_POINT('',(-5.51091059616309E-16,-4.5,45.75));
#212=CARTESIAN_POINT('Origin',(0.,0.,45.75));
#213=CARTESIAN_POINT('',(-5.51091059616309E-16,-4.5,45.));
#214=CARTESIAN_POINT('Origin',(0.,5.5,45.75));
#215=CARTESIAN_POINT('',(-5.,-6.12323399573677E-16,45.75));
#216=CARTESIAN_POINT('Origin',(0.,0.,45.75));
#217=CARTESIAN_POINT('Origin',(0.,0.,0.));
#218=CARTESIAN_POINT('',(-5.,-6.12323399573677E-16,90.));
#219=CARTESIAN_POINT('Origin',(0.,0.,90.));
#220=CARTESIAN_POINT('',(-5.,-6.12323399573677E-16,0.));
#221=CARTESIAN_POINT('Origin',(0.,0.,75.2206686053906));
#222=CARTESIAN_POINT('',(-2.5940505,-3.17679564165159E-16,76.));
#223=CARTESIAN_POINT('Origin',(0.,0.,76.));
#224=CARTESIAN_POINT('',(0.,0.,74.4413372107812));
#225=CARTESIAN_POINT('',(-1.29702525,-1.5883978208258E-16,75.2206686053906));
#226=CARTESIAN_POINT('Origin',(0.,0.,83.));
#227=CARTESIAN_POINT('',(-2.5940505,-3.17679564165159E-16,90.));
#228=CARTESIAN_POINT('Origin',(0.,0.,90.));
#229=CARTESIAN_POINT('',(-2.5940505,-3.17679564165159E-16,83.));
#230=CARTESIAN_POINT('Origin',(0.,0.,0.));
#231=CARTESIAN_POINT('',(-5.,-6.12323399573677E-16,0.));
#232=CARTESIAN_POINT('',(-5.,-6.12323399573677E-16,0.));
#233=CARTESIAN_POINT('Origin',(0.,0.,0.));
#234=CARTESIAN_POINT('Origin',(0.,0.,90.));
#235=CARTESIAN_POINT('Origin',(0.,0.,0.));
#236=UNCERTAINTY_MEASURE_WITH_UNIT(LENGTH_MEASURE(0.01),#240,
'DISTANCE_ACCURACY_VALUE',
'Maximum model space distance between geometric entities at asserted c
onnectivities');
#237=UNCERTAINTY_MEASURE_WITH_UNIT(LENGTH_MEASURE(0.01),#240,
'DISTANCE_ACCURACY_VALUE',
'Maximum model space distance between geometric entities at asserted c
onnectivities');
#238=(
GEOMETRIC_REPRESENTATION_CONTEXT(3)
GLOBAL_UNCERTAINTY_ASSIGNED_CONTEXT((#236))
GLOBAL_UNIT_ASSIGNED_CONTEXT((#240,#242,#243))
REPRESENTATION_CONTEXT('','3D')
);
#239=(
GEOMETRIC_REPRESENTATION_CONTEXT(3)
GLOBAL_UNCERTAINTY_ASSIGNED_CONTEXT((#237))
GLOBAL_UNIT_ASSIGNED_CONTEXT((#240,#242,#243))
REPRESENTATION_CONTEXT('','3D')
);
#240=(
LENGTH_UNIT()
NAMED_UNIT(*)
SI_UNIT(.MILLI.,.METRE.)
);
#241=(
LENGTH_UNIT()
NAMED_UNIT(*)
SI_UNIT(.CENTI.,.METRE.)
);
#242=(
NAMED_UNIT(*)
PLANE_ANGLE_UNIT()
SI_UNIT($,.RADIAN.)
);
#243=(
NAMED_UNIT(*)
SI_UNIT($,.STERADIAN.)
SOLID_ANGLE_UNIT()
);
#244=SHAPE_DEFINITION_REPRESENTATION(#245,#246);
#245=PRODUCT_DEFINITION_SHAPE('',$,#248);
#246=SHAPE_REPRESENTATION('',(#145),#238);
#247=PRODUCT_DEFINITION_CONTEXT('part definition',#252,'design');
#248=PRODUCT_DEFINITION('Axe centrage V2','Axe centrage V2',#249,#247);
#249=PRODUCT_DEFINITION_FORMATION('',$,#254);
#250=PRODUCT_RELATED_PRODUCT_CATEGORY('Axe centrage V2',
'Axe centrage V2',(#254));
#251=APPLICATION_PROTOCOL_DEFINITION('international standard',
'automotive_design',2009,#252);
#252=APPLICATION_CONTEXT(
'Core Data for Automotive Mechanical Design Process');
#253=PRODUCT_CONTEXT('part definition',#252,'mechanical');
#254=PRODUCT('Axe centrage V2','Axe centrage V2',$,(#253));
#255=PRESENTATION_STYLE_ASSIGNMENT((#256));
#256=SURFACE_STYLE_USAGE(.BOTH.,#259);
#257=SURFACE_STYLE_RENDERING_WITH_PROPERTIES($,#263,(#258));
#258=SURFACE_STYLE_TRANSPARENT(0.);
#259=SURFACE_SIDE_STYLE('',(#260,#257));
#260=SURFACE_STYLE_FILL_AREA(#261);
#261=FILL_AREA_STYLE('',(#262));
#262=FILL_AREA_STYLE_COLOUR('',#263);
#263=COLOUR_RGB('',0.745098039215686,0.737254901960784,0.729411764705882);
ENDSEC;
END-ISO-10303-21;
