ISO-10303-21;
HEADER;
FILE_DESCRIPTION (( 'STEP AP203' ),
    '1' );
FILE_NAME ('Pièce1 chicane silencieux.STEP',
    '2023-03-27T18:27:31',
    ( '' ),
    ( '' ),
    'SwSTEP 2.0',
    'SolidWorks 2019',
    '' );
FILE_SCHEMA (( 'CONFIG_CONTROL_DESIGN' ));
ENDSEC;

DATA;
#1 = EDGE_CURVE ( 'NONE', #181, #80, #136, .T. ) ;
#2 = CARTESIAN_POINT ( 'NONE',  ( 0.000000000000000000, 0.000000000000000000, 2.000000000000000000 ) ) ;
#3 = LOCAL_TIME ( 20, 27, 31.00000000000000000, #123 ) ;
#4 = DIRECTION ( 'NONE',  ( 0.000000000000000000, 0.000000000000000000, 1.000000000000000000 ) ) ;
#5 = APPLICATION_CONTEXT ( 'configuration controlled 3d designs of mechanical parts and assemblies' ) ;
#6 = DIRECTION ( 'NONE',  ( 0.000000000000000000, 0.000000000000000000, 1.000000000000000000 ) ) ;
#7 = CIRCLE ( 'NONE', #192, 38.00000000000000000 ) ;
#8 = VERTEX_POINT ( 'NONE', #170 ) ;
#9 = ADVANCED_FACE ( 'NONE', ( #150 ), #238, .T. ) ;
#10 = VERTEX_POINT ( 'NONE', #113 ) ;
#11 = VECTOR ( 'NONE', #214, 1000.000000000000000 ) ;
#12 = ORIENTED_EDGE ( 'NONE', *, *, #55, .F. ) ;
#13 = DATE_TIME_ROLE ( 'creation_date' ) ;
#14 = CIRCLE ( 'NONE', #46, 30.00000000000000000 ) ;
#15 = LINE ( 'NONE', #95, #152 ) ;
#16 = DIRECTION ( 'NONE',  ( 1.000000000000000000, 0.000000000000000000, -0.000000000000000000 ) ) ;
#17 = DIRECTION ( 'NONE',  ( 0.000000000000000000, 0.000000000000000000, 1.000000000000000000 ) ) ;
#18 = AXIS2_PLACEMENT_3D ( 'NONE', #77, #141, #70 ) ;
#19 = CARTESIAN_POINT ( 'NONE',  ( 0.000000000000000000, 0.000000000000000000, 2.000000000000000000 ) ) ;
#20 = SHAPE_DEFINITION_REPRESENTATION ( #105, #151 ) ;
#21 = DIRECTION ( 'NONE',  ( 1.000000000000000000, 0.000000000000000000, 0.000000000000000000 ) ) ;
#22 = DIRECTION ( 'NONE',  ( -0.000000000000000000, -0.000000000000000000, -1.000000000000000000 ) ) ;
#23 = SECURITY_CLASSIFICATION ( '', '', #110 ) ;
#24 = ADVANCED_FACE ( 'NONE', ( #173, #189 ), #33, .T. ) ;
#25 = DIRECTION ( 'NONE',  ( 1.000000000000000000, 0.000000000000000000, 0.000000000000000000 ) ) ;
#26 =( NAMED_UNIT ( * ) PLANE_ANGLE_UNIT ( ) SI_UNIT ( $, .RADIAN. ) );
#27 = AXIS2_PLACEMENT_3D ( 'NONE', #220, #205, #25 ) ;
#28 = ADVANCED_FACE ( 'NONE', ( #191, #196 ), #37, .F. ) ;
#29 = ORIENTED_EDGE ( 'NONE', *, *, #155, .T. ) ;
#30 = EDGE_LOOP ( 'NONE', ( #63, #153, #165, #217 ) ) ;
#31 = ORIENTED_EDGE ( 'NONE', *, *, #237, .F. ) ;
#32 = APPROVAL_STATUS ( 'not_yet_approved' ) ;
#33 = PLANE ( 'NONE',  #18 ) ;
#34 = CALENDAR_DATE ( 2023, 27, 3 ) ;
#35 = APPROVAL_PERSON_ORGANIZATION ( #200, #148, #44 ) ;
#36 = COORDINATED_UNIVERSAL_TIME_OFFSET ( 1, 0, .AHEAD. ) ;
#37 = PLANE ( 'NONE',  #120 ) ;
#38 = CC_DESIGN_PERSON_AND_ORGANIZATION_ASSIGNMENT ( #91, #242, ( #49 ) ) ;
#39 = DIRECTION ( 'NONE',  ( -1.000000000000000000, 0.000000000000000000, 0.000000000000000000 ) ) ;
#40 = APPROVAL ( #32, 'UNSPECIFIED' ) ;
#41 = AXIS2_PLACEMENT_3D ( 'NONE', #179, #4, #21 ) ;
#42 = EDGE_LOOP ( 'NONE', ( #183, #127, #154, #90 ) ) ;
#43 = CARTESIAN_POINT ( 'NONE',  ( 38.00000000000000000, 4.653657836759941941E-15, 2.000000000000000000 ) ) ;
#44 = APPROVAL_ROLE ( '' ) ;
#45 = CARTESIAN_POINT ( 'NONE',  ( 0.000000000000000000, 0.000000000000000000, 2.000000000000000000 ) ) ;
#46 = AXIS2_PLACEMENT_3D ( 'NONE', #45, #198, #235 ) ;
#47 = CARTESIAN_POINT ( 'NONE',  ( 0.000000000000000000, 0.000000000000000000, 2.000000000000000000 ) ) ;
#48 = CC_DESIGN_PERSON_AND_ORGANIZATION_ASSIGNMENT ( #54, #195, ( #49 ) ) ;
#49 = PRODUCT_DEFINITION_FORMATION_WITH_SPECIFIED_SOURCE ( 'ANY', '', #108, .NOT_KNOWN. ) ;
#50 = ORIENTED_EDGE ( 'NONE', *, *, #230, .F. ) ;
#51 = PERSON_AND_ORGANIZATION ( #138, #114 ) ;
#52 = VECTOR ( 'NONE', #121, 1000.000000000000000 ) ;
#53 = MECHANICAL_CONTEXT ( 'NONE', #5, 'mechanical' ) ;
#54 = PERSON_AND_ORGANIZATION ( #138, #114 ) ;
#55 = EDGE_CURVE ( 'NONE', #8, #221, #15, .T. ) ;
#56 = APPROVAL_ROLE ( '' ) ;
#57 = DATE_AND_TIME ( #140, #81 ) ;
#58 = DATE_AND_TIME ( #219, #3 ) ;
#59 = PRODUCT_DEFINITION ( 'UNKNOWN', '', #49, #229 ) ;
#60 = AXIS2_PLACEMENT_3D ( 'NONE', #19, #249, #177 ) ;
#61 = DIRECTION ( 'NONE',  ( -0.000000000000000000, -0.000000000000000000, -1.000000000000000000 ) ) ;
#62 = CARTESIAN_POINT ( 'NONE',  ( 0.000000000000000000, 0.000000000000000000, 0.000000000000000000 ) ) ;
#63 = ORIENTED_EDGE ( 'NONE', *, *, #130, .F. ) ;
#64 = CARTESIAN_POINT ( 'NONE',  ( 30.00000000000000000, 3.673940397442059178E-15, 2.000000000000000000 ) ) ;
#65 = CC_DESIGN_APPROVAL ( #148, ( #23 ) ) ;
#66 = EDGE_LOOP ( 'NONE', ( #50, #67 ) ) ;
#67 = ORIENTED_EDGE ( 'NONE', *, *, #155, .F. ) ;
#68 = EDGE_CURVE ( 'NONE', #208, #80, #246, .T. ) ;
#69 = VERTEX_POINT ( 'NONE', #161 ) ;
#70 = DIRECTION ( 'NONE',  ( 1.000000000000000000, 0.000000000000000000, -0.000000000000000000 ) ) ;
#71 = APPLICATION_PROTOCOL_DEFINITION ( 'international standard', 'config_control_design', 1994, #76 ) ;
#72 = EDGE_CURVE ( 'NONE', #80, #181, #158, .T. ) ;
#73 = PERSON_AND_ORGANIZATION_ROLE ( 'creator' ) ;
#74 = CARTESIAN_POINT ( 'NONE',  ( 30.00000000000000000, 3.673940397442059178E-15, 2.000000000000000000 ) ) ;
#75 = APPROVAL_DATE_TIME ( #169, #243 ) ;
#76 = APPLICATION_CONTEXT ( 'configuration controlled 3d designs of mechanical parts and assemblies' ) ;
#77 = CARTESIAN_POINT ( 'NONE',  ( 0.000000000000000000, 0.000000000000000000, 2.000000000000000000 ) ) ;
#78 = LOCAL_TIME ( 20, 27, 31.00000000000000000, #36 ) ;
#79 = EDGE_CURVE ( 'NONE', #69, #181, #180, .T. ) ;
#80 = VERTEX_POINT ( 'NONE', #119 ) ;
#81 = LOCAL_TIME ( 20, 27, 31.00000000000000000, #109 ) ;
#82 = CARTESIAN_POINT ( 'NONE',  ( -30.00000000000000000, 0.000000000000000000, 0.000000000000000000 ) ) ;
#83 = EDGE_CURVE ( 'NONE', #8, #122, #7, .T. ) ;
#84 = APPROVAL_DATE_TIME ( #58, #148 ) ;
#85 = CYLINDRICAL_SURFACE ( 'NONE', #104, 38.00000000000000000 ) ;
#86 = DIRECTION ( 'NONE',  ( 0.000000000000000000, 0.000000000000000000, 1.000000000000000000 ) ) ;
#87 = EDGE_CURVE ( 'NONE', #69, #208, #14, .T. ) ;
#88 = AXIS2_PLACEMENT_3D ( 'NONE', #116, #245, #224 ) ;
#89 = ORIENTED_EDGE ( 'NONE', *, *, #83, .T. ) ;
#90 = ORIENTED_EDGE ( 'NONE', *, *, #72, .F. ) ;
#91 = PERSON_AND_ORGANIZATION ( #138, #114 ) ;
#92 = ADVANCED_FACE ( 'NONE', ( #203 ), #85, .T. ) ;
#93 = AXIS2_PLACEMENT_3D ( 'NONE', #206, #134, #107 ) ;
#94 = PERSON_AND_ORGANIZATION ( #138, #114 ) ;
#95 = CARTESIAN_POINT ( 'NONE',  ( -38.00000000000000000, 0.000000000000000000, 2.000000000000000000 ) ) ;
#96 = DIRECTION ( 'NONE',  ( -0.000000000000000000, -0.000000000000000000, -1.000000000000000000 ) ) ;
#97 = ADVANCED_FACE ( 'NONE', ( #147 ), #218, .F. ) ;
#98 = ORIENTED_EDGE ( 'NONE', *, *, #72, .T. ) ;
#99 = APPROVAL_STATUS ( 'not_yet_approved' ) ;
#100 = FACE_OUTER_BOUND ( 'NONE', #167, .T. ) ;
#101 = APPROVAL_PERSON_ORGANIZATION ( #209, #40, #56 ) ;
#102 = DIRECTION ( 'NONE',  ( -1.000000000000000000, 0.000000000000000000, 0.000000000000000000 ) ) ;
#103 = CARTESIAN_POINT ( 'NONE',  ( 0.000000000000000000, 0.000000000000000000, 2.000000000000000000 ) ) ;
#104 = AXIS2_PLACEMENT_3D ( 'NONE', #201, #22, #102 ) ;
#105 = PRODUCT_DEFINITION_SHAPE ( 'NONE', 'NONE',  #59 ) ;
#106 = EDGE_LOOP ( 'NONE', ( #160, #232, #29, #12 ) ) ;
#107 = DIRECTION ( 'NONE',  ( 1.000000000000000000, 0.000000000000000000, 0.000000000000000000 ) ) ;
#108 = PRODUCT ( 'Pièce1 chicane silencieux', 'Pièce1 chicane silencieux', '', ( #53 ) ) ;
#109 = COORDINATED_UNIVERSAL_TIME_OFFSET ( 1, 0, .AHEAD. ) ;
#110 = SECURITY_CLASSIFICATION_LEVEL ( 'unclassified' ) ;
#111 = DIRECTION ( 'NONE',  ( -0.000000000000000000, -0.000000000000000000, -1.000000000000000000 ) ) ;
#112 = PERSON_AND_ORGANIZATION ( #138, #114 ) ;
#113 = CARTESIAN_POINT ( 'NONE',  ( 38.00000000000000000, 4.653657836759941941E-15, 0.000000000000000000 ) ) ;
#114 = ORGANIZATION ( 'UNSPECIFIED', 'UNSPECIFIED', '' ) ;
#115 = MANIFOLD_SOLID_BREP ( 'Boss.-Extru.1', #156 ) ;
#116 = CARTESIAN_POINT ( 'NONE',  ( 0.000000000000000000, 0.000000000000000000, 0.000000000000000000 ) ) ;
#117 =( NAMED_UNIT ( * ) SI_UNIT ( $, .STERADIAN. ) SOLID_ANGLE_UNIT ( ) );
#118 = DIRECTION ( 'NONE',  ( -1.000000000000000000, 0.000000000000000000, 0.000000000000000000 ) ) ;
#119 = CARTESIAN_POINT ( 'NONE',  ( 30.00000000000000000, 3.673940397442059178E-15, 0.000000000000000000 ) ) ;
#120 = AXIS2_PLACEMENT_3D ( 'NONE', #193, #17, #16 ) ;
#121 = DIRECTION ( 'NONE',  ( -0.000000000000000000, -0.000000000000000000, -1.000000000000000000 ) ) ;
#122 = VERTEX_POINT ( 'NONE', #43 ) ;
#123 = COORDINATED_UNIVERSAL_TIME_OFFSET ( 1, 0, .AHEAD. ) ;
#124 = EDGE_CURVE ( 'NONE', #122, #8, #216, .T. ) ;
#125 = CARTESIAN_POINT ( 'NONE',  ( 38.00000000000000000, 4.653657836759941941E-15, 2.000000000000000000 ) ) ;
#126 = DIRECTION ( 'NONE',  ( 1.000000000000000000, 0.000000000000000000, 0.000000000000000000 ) ) ;
#127 = ORIENTED_EDGE ( 'NONE', *, *, #237, .T. ) ;
#128 = CARTESIAN_POINT ( 'NONE',  ( -38.00000000000000000, 0.000000000000000000, 0.000000000000000000 ) ) ;
#129 = EDGE_LOOP ( 'NONE', ( #89, #188 ) ) ;
#130 = EDGE_CURVE ( 'NONE', #122, #10, #215, .T. ) ;
#131 = ORIENTED_EDGE ( 'NONE', *, *, #1, .T. ) ;
#132 = CC_DESIGN_APPROVAL ( #243, ( #59 ) ) ;
#133 = CC_DESIGN_PERSON_AND_ORGANIZATION_ASSIGNMENT ( #171, #73, ( #59 ) ) ;
#134 = DIRECTION ( 'NONE',  ( 0.000000000000000000, 0.000000000000000000, 1.000000000000000000 ) ) ;
#135 = APPROVAL_STATUS ( 'not_yet_approved' ) ;
#136 = CIRCLE ( 'NONE', #93, 30.00000000000000000 ) ;
#137 = APPROVAL_ROLE ( '' ) ;
#138 = PERSON ( 'UNSPECIFIED', 'UNSPECIFIED', 'UNSPECIFIED', ('UNSPECIFIED'), ('UNSPECIFIED'), ('UNSPECIFIED') ) ;
#139 = DATE_AND_TIME ( #157, #168 ) ;
#140 = CALENDAR_DATE ( 2023, 27, 3 ) ;
#141 = DIRECTION ( 'NONE',  ( 0.000000000000000000, 0.000000000000000000, 1.000000000000000000 ) ) ;
#142 = APPROVAL_PERSON_ORGANIZATION ( #51, #243, #137 ) ;
#143 = DIRECTION ( 'NONE',  ( 1.000000000000000000, 0.000000000000000000, 0.000000000000000000 ) ) ;
#144 = DIRECTION ( 'NONE',  ( 1.000000000000000000, 0.000000000000000000, 0.000000000000000000 ) ) ;
#145 = ORIENTED_EDGE ( 'NONE', *, *, #87, .T. ) ;
#146 = DIRECTION ( 'NONE',  ( 0.000000000000000000, 0.000000000000000000, 1.000000000000000000 ) ) ;
#147 = FACE_OUTER_BOUND ( 'NONE', #42, .T. ) ;
#148 = APPROVAL ( #99, 'UNSPECIFIED' ) ;
#149 = ORIENTED_EDGE ( 'NONE', *, *, #1, .F. ) ;
#150 = FACE_OUTER_BOUND ( 'NONE', #106, .T. ) ;
#151 = ADVANCED_BREP_SHAPE_REPRESENTATION ( 'PiÞce1 chicane silencieux', ( #115, #88 ), #234 ) ;
#152 = VECTOR ( 'NONE', #96, 1000.000000000000000 ) ;
#153 = ORIENTED_EDGE ( 'NONE', *, *, #83, .F. ) ;
#154 = ORIENTED_EDGE ( 'NONE', *, *, #79, .T. ) ;
#155 = EDGE_CURVE ( 'NONE', #10, #221, #164, .T. ) ;
#156 = CLOSED_SHELL ( 'NONE', ( #166, #9, #24, #28, #92, #97 ) ) ;
#157 = CALENDAR_DATE ( 2023, 27, 3 ) ;
#158 = CIRCLE ( 'NONE', #204, 30.00000000000000000 ) ;
#159 =( LENGTH_UNIT ( ) NAMED_UNIT ( * ) SI_UNIT ( .MILLI., .METRE. ) );
#160 = ORIENTED_EDGE ( 'NONE', *, *, #124, .F. ) ;
#161 = CARTESIAN_POINT ( 'NONE',  ( -30.00000000000000000, 0.000000000000000000, 2.000000000000000000 ) ) ;
#162 = DIRECTION ( 'NONE',  ( 0.000000000000000000, 0.000000000000000000, 1.000000000000000000 ) ) ;
#163 = DIRECTION ( 'NONE',  ( 1.000000000000000000, 0.000000000000000000, 0.000000000000000000 ) ) ;
#164 = CIRCLE ( 'NONE', #41, 38.00000000000000000 ) ;
#165 = ORIENTED_EDGE ( 'NONE', *, *, #55, .T. ) ;
#166 = ADVANCED_FACE ( 'NONE', ( #100 ), #236, .F. ) ;
#167 = EDGE_LOOP ( 'NONE', ( #145, #207, #149, #241 ) ) ;
#168 = LOCAL_TIME ( 20, 27, 31.00000000000000000, #244 ) ;
#169 = DATE_AND_TIME ( #210, #233 ) ;
#170 = CARTESIAN_POINT ( 'NONE',  ( -38.00000000000000000, 0.000000000000000000, 2.000000000000000000 ) ) ;
#171 = PERSON_AND_ORGANIZATION ( #138, #114 ) ;
#172 = VECTOR ( 'NONE', #61, 1000.000000000000000 ) ;
#173 = FACE_OUTER_BOUND ( 'NONE', #129, .T. ) ;
#174 = CC_DESIGN_PERSON_AND_ORGANIZATION_ASSIGNMENT ( #94, #190, ( #108 ) ) ;
#175 = CARTESIAN_POINT ( 'NONE',  ( 0.000000000000000000, 0.000000000000000000, 2.000000000000000000 ) ) ;
#176 = CARTESIAN_POINT ( 'NONE',  ( -30.00000000000000000, 0.000000000000000000, 2.000000000000000000 ) ) ;
#177 = DIRECTION ( 'NONE',  ( -1.000000000000000000, 0.000000000000000000, 0.000000000000000000 ) ) ;
#178 = CC_DESIGN_SECURITY_CLASSIFICATION ( #23, ( #49 ) ) ;
#179 = CARTESIAN_POINT ( 'NONE',  ( 0.000000000000000000, 0.000000000000000000, 0.000000000000000000 ) ) ;
#180 = LINE ( 'NONE', #176, #172 ) ;
#181 = VERTEX_POINT ( 'NONE', #82 ) ;
#182 = AXIS2_PLACEMENT_3D ( 'NONE', #2, #202, #39 ) ;
#183 = ORIENTED_EDGE ( 'NONE', *, *, #68, .F. ) ;
#184 = UNCERTAINTY_MEASURE_WITH_UNIT (LENGTH_MEASURE( 1.000000000000000082E-05 ), #159, 'distance_accuracy_value', 'NONE');
#185 = EDGE_LOOP ( 'NONE', ( #131, #98 ) ) ;
#186 = CC_DESIGN_DATE_AND_TIME_ASSIGNMENT ( #139, #211, ( #23 ) ) ;
#187 = CIRCLE ( 'NONE', #27, 38.00000000000000000 ) ;
#188 = ORIENTED_EDGE ( 'NONE', *, *, #124, .T. ) ;
#189 = FACE_BOUND ( 'NONE', #222, .T. ) ;
#190 = PERSON_AND_ORGANIZATION_ROLE ( 'design_owner' ) ;
#191 = FACE_OUTER_BOUND ( 'NONE', #66, .T. ) ;
#192 = AXIS2_PLACEMENT_3D ( 'NONE', #175, #146, #126 ) ;
#193 = CARTESIAN_POINT ( 'NONE',  ( 0.000000000000000000, 0.000000000000000000, 0.000000000000000000 ) ) ;
#194 = CC_DESIGN_DATE_AND_TIME_ASSIGNMENT ( #227, #13, ( #59 ) ) ;
#195 = PERSON_AND_ORGANIZATION_ROLE ( 'creator' ) ;
#196 = FACE_BOUND ( 'NONE', #185, .T. ) ;
#197 = CC_DESIGN_PERSON_AND_ORGANIZATION_ASSIGNMENT ( #112, #225, ( #23 ) ) ;
#198 = DIRECTION ( 'NONE',  ( 0.000000000000000000, 0.000000000000000000, 1.000000000000000000 ) ) ;
#199 = AXIS2_PLACEMENT_3D ( 'NONE', #231, #162, #143 ) ;
#200 = PERSON_AND_ORGANIZATION ( #138, #114 ) ;
#201 = CARTESIAN_POINT ( 'NONE',  ( 0.000000000000000000, 0.000000000000000000, 2.000000000000000000 ) ) ;
#202 = DIRECTION ( 'NONE',  ( -0.000000000000000000, -0.000000000000000000, -1.000000000000000000 ) ) ;
#203 = FACE_OUTER_BOUND ( 'NONE', #30, .T. ) ;
#204 = AXIS2_PLACEMENT_3D ( 'NONE', #62, #86, #144 ) ;
#205 = DIRECTION ( 'NONE',  ( 0.000000000000000000, 0.000000000000000000, 1.000000000000000000 ) ) ;
#206 = CARTESIAN_POINT ( 'NONE',  ( 0.000000000000000000, 0.000000000000000000, 0.000000000000000000 ) ) ;
#207 = ORIENTED_EDGE ( 'NONE', *, *, #68, .T. ) ;
#208 = VERTEX_POINT ( 'NONE', #64 ) ;
#209 = PERSON_AND_ORGANIZATION ( #138, #114 ) ;
#210 = CALENDAR_DATE ( 2023, 27, 3 ) ;
#211 = DATE_TIME_ROLE ( 'classification_date' ) ;
#212 = AXIS2_PLACEMENT_3D ( 'NONE', #103, #6, #163 ) ;
#213 = APPROVAL_DATE_TIME ( #57, #40 ) ;
#214 = DIRECTION ( 'NONE',  ( -0.000000000000000000, -0.000000000000000000, -1.000000000000000000 ) ) ;
#215 = LINE ( 'NONE', #125, #52 ) ;
#216 = CIRCLE ( 'NONE', #199, 38.00000000000000000 ) ;
#217 = ORIENTED_EDGE ( 'NONE', *, *, #230, .T. ) ;
#218 = CYLINDRICAL_SURFACE ( 'NONE', #182, 30.00000000000000000 ) ;
#219 = CALENDAR_DATE ( 2023, 27, 3 ) ;
#220 = CARTESIAN_POINT ( 'NONE',  ( 0.000000000000000000, 0.000000000000000000, 0.000000000000000000 ) ) ;
#221 = VERTEX_POINT ( 'NONE', #128 ) ;
#222 = EDGE_LOOP ( 'NONE', ( #239, #31 ) ) ;
#223 = CC_DESIGN_APPROVAL ( #40, ( #49 ) ) ;
#224 = DIRECTION ( 'NONE',  ( 1.000000000000000000, 0.000000000000000000, 0.000000000000000000 ) ) ;
#225 = PERSON_AND_ORGANIZATION_ROLE ( 'classification_officer' ) ;
#226 = APPLICATION_PROTOCOL_DEFINITION ( 'international standard', 'config_control_design', 1994, #5 ) ;
#227 = DATE_AND_TIME ( #34, #78 ) ;
#228 = AXIS2_PLACEMENT_3D ( 'NONE', #47, #111, #118 ) ;
#229 = DESIGN_CONTEXT ( 'detailed design', #76, 'design' ) ;
#230 = EDGE_CURVE ( 'NONE', #221, #10, #187, .T. ) ;
#231 = CARTESIAN_POINT ( 'NONE',  ( 0.000000000000000000, 0.000000000000000000, 2.000000000000000000 ) ) ;
#232 = ORIENTED_EDGE ( 'NONE', *, *, #130, .T. ) ;
#233 = LOCAL_TIME ( 20, 27, 31.00000000000000000, #247 ) ;
#234 =( GEOMETRIC_REPRESENTATION_CONTEXT ( 3 ) GLOBAL_UNCERTAINTY_ASSIGNED_CONTEXT ( ( #184 ) ) GLOBAL_UNIT_ASSIGNED_CONTEXT ( ( #159, #26, #117 ) ) REPRESENTATION_CONTEXT ( 'NONE', 'WORKASPACE' ) );
#235 = DIRECTION ( 'NONE',  ( 1.000000000000000000, 0.000000000000000000, 0.000000000000000000 ) ) ;
#236 = CYLINDRICAL_SURFACE ( 'NONE', #60, 30.00000000000000000 ) ;
#237 = EDGE_CURVE ( 'NONE', #208, #69, #248, .T. ) ;
#238 = CYLINDRICAL_SURFACE ( 'NONE', #228, 38.00000000000000000 ) ;
#239 = ORIENTED_EDGE ( 'NONE', *, *, #87, .F. ) ;
#240 = PRODUCT_RELATED_PRODUCT_CATEGORY ( 'detail', '', ( #108 ) ) ;
#241 = ORIENTED_EDGE ( 'NONE', *, *, #79, .F. ) ;
#242 = PERSON_AND_ORGANIZATION_ROLE ( 'design_supplier' ) ;
#243 = APPROVAL ( #135, 'UNSPECIFIED' ) ;
#244 = COORDINATED_UNIVERSAL_TIME_OFFSET ( 1, 0, .AHEAD. ) ;
#245 = DIRECTION ( 'NONE',  ( 0.000000000000000000, 0.000000000000000000, 1.000000000000000000 ) ) ;
#246 = LINE ( 'NONE', #74, #11 ) ;
#247 = COORDINATED_UNIVERSAL_TIME_OFFSET ( 1, 0, .AHEAD. ) ;
#248 = CIRCLE ( 'NONE', #212, 30.00000000000000000 ) ;
#249 = DIRECTION ( 'NONE',  ( -0.000000000000000000, -0.000000000000000000, -1.000000000000000000 ) ) ;
ENDSEC;
END-ISO-10303-21;
