ISO-10303-21;
HEADER;
/* Generated by software containing ST-Developer
 * from STEP Tools, Inc. (www.steptools.com) 
 */

FILE_DESCRIPTION(
/* description */ (''),
/* implementation_level */ '2;1');

FILE_NAME(
/* name */ 'Axe came.stp',
/* time_stamp */ '2023-03-29T16:36:18+02:00',
/* author */ ('ethomas'),
/* organization */ (''),
/* preprocessor_version */ 'ST-DEVELOPER v19.2',
/* originating_system */ 'Autodesk Inventor 2023',
/* authorisation */ '');

FILE_SCHEMA (('AUTOMOTIVE_DESIGN { 1 0 10303 214 3 1 1 }'));
ENDSEC;

DATA;
#10=MECHANICAL_DESIGN_GEOMETRIC_PRESENTATION_REPRESENTATION('',(#13),#413);
#11=SHAPE_REPRESENTATION_RELATIONSHIP('SRR','None',#420,#12);
#12=ADVANCED_BREP_SHAPE_REPRESENTATION('',(#14),#412);
#13=STYLED_ITEM('',(#429),#14);
#14=MANIFOLD_SOLID_BREP('Solide1',#203);
#15=FACE_BOUND('',#56,.T.);
#16=FACE_BOUND('',#57,.T.);
#17=FACE_BOUND('',#60,.T.);
#18=(
BOUNDED_SURFACE()
B_SPLINE_SURFACE(1,2,((#383,#384,#385,#386,#387,#388,#389,#390,#391),(#392,
#393,#394,#395,#396,#397,#398,#399,#400)),.UNSPECIFIED.,.F.,.T.,.F.)
B_SPLINE_SURFACE_WITH_KNOTS((2,2),(3,2,2,2,3),(0.,1.),(-3.14159265358979,
-1.5707963267949,0.,1.5707963267949,3.14159265358979),.UNSPECIFIED.)
GEOMETRIC_REPRESENTATION_ITEM()
RATIONAL_B_SPLINE_SURFACE(((1.,0.707106781186548,1.,0.707106781186548,1.,
0.707106781186548,1.,0.707106781186548,1.),(1.,0.707106781186548,1.,0.707106781186548,
1.,0.707106781186548,1.,0.707106781186548,1.)))
REPRESENTATION_ITEM('')
SURFACE()
);
#19=ELLIPSE('',#244,10.,5.);
#20=ELLIPSE('',#248,10.,5.);
#21=ELLIPSE('',#249,10.,5.);
#22=ELLIPSE('',#251,10.,5.);
#23=B_SPLINE_CURVE_WITH_KNOTS('',3,(#334,#335,#336,#337),.UNSPECIFIED.,
 .F.,.F.,(4,4),(3.07932045401936,3.2610796215571),.UNSPECIFIED.);
#24=B_SPLINE_CURVE_WITH_KNOTS('',3,(#339,#340,#341,#342),.UNSPECIFIED.,
 .F.,.F.,(4,4),(0.,0.182078120549834),.UNSPECIFIED.);
#25=B_SPLINE_CURVE_WITH_KNOTS('',3,(#354,#355,#356,#357),.UNSPECIFIED.,
 .F.,.F.,(4,4),(0.,0.182078120549834),.UNSPECIFIED.);
#26=B_SPLINE_CURVE_WITH_KNOTS('',3,(#360,#361,#362,#363),.UNSPECIFIED.,
 .F.,.F.,(4,4),(3.07932045401936,3.2610796215571),.UNSPECIFIED.);
#27=CONICAL_SURFACE('',#230,0.8105,1.02974425867665);
#28=CONICAL_SURFACE('',#236,0.8105,1.02974425867665);
#29=PLANE('',#229);
#30=PLANE('',#242);
#31=PLANE('',#246);
#32=PLANE('',#252);
#33=PLANE('',#255);
#34=FACE_OUTER_BOUND('',#46,.T.);
#35=FACE_OUTER_BOUND('',#47,.T.);
#36=FACE_OUTER_BOUND('',#48,.T.);
#37=FACE_OUTER_BOUND('',#49,.T.);
#38=FACE_OUTER_BOUND('',#50,.T.);
#39=FACE_OUTER_BOUND('',#51,.T.);
#40=FACE_OUTER_BOUND('',#52,.T.);
#41=FACE_OUTER_BOUND('',#53,.T.);
#42=FACE_OUTER_BOUND('',#54,.T.);
#43=FACE_OUTER_BOUND('',#55,.T.);
#44=FACE_OUTER_BOUND('',#58,.T.);
#45=FACE_OUTER_BOUND('',#59,.T.);
#46=EDGE_LOOP('',(#131,#132,#133,#134));
#47=EDGE_LOOP('',(#135));
#48=EDGE_LOOP('',(#136,#137,#138));
#49=EDGE_LOOP('',(#139,#140,#141,#142,#143,#144));
#50=EDGE_LOOP('',(#145,#146,#147));
#51=EDGE_LOOP('',(#148,#149,#150,#151,#152,#153));
#52=EDGE_LOOP('',(#154,#155,#156,#157,#158));
#53=EDGE_LOOP('',(#159,#160,#161,#162,#163,#164));
#54=EDGE_LOOP('',(#165,#166,#167,#168,#169,#170));
#55=EDGE_LOOP('',(#171));
#56=EDGE_LOOP('',(#172));
#57=EDGE_LOOP('',(#173));
#58=EDGE_LOOP('',(#174,#175,#176,#177,#178,#179,#180,#181,#182,#183,#184));
#59=EDGE_LOOP('',(#185));
#60=EDGE_LOOP('',(#186));
#61=LINE('',#328,#66);
#62=LINE('',#348,#67);
#63=LINE('',#368,#68);
#64=LINE('',#403,#69);
#65=LINE('',#407,#70);
#66=VECTOR('',#262,3.);
#67=VECTOR('',#275,1.621);
#68=VECTOR('',#288,1.621);
#69=VECTOR('',#313,10.);
#70=VECTOR('',#318,5.);
#71=CIRCLE('',#227,3.);
#72=CIRCLE('',#228,3.);
#73=CIRCLE('',#231,1.621);
#74=CIRCLE('',#233,1.621);
#75=CIRCLE('',#234,1.621);
#76=CIRCLE('',#235,1.621);
#77=CIRCLE('',#237,1.621);
#78=CIRCLE('',#239,1.621);
#79=CIRCLE('',#240,1.621);
#80=CIRCLE('',#241,1.621);
#81=CIRCLE('',#243,5.);
#82=CIRCLE('',#245,5.);
#83=CIRCLE('',#247,5.);
#84=CIRCLE('',#250,5.);
#85=CIRCLE('',#254,5.);
#86=VERTEX_POINT('',#325);
#87=VERTEX_POINT('',#327);
#88=VERTEX_POINT('',#332);
#89=VERTEX_POINT('',#333);
#90=VERTEX_POINT('',#338);
#91=VERTEX_POINT('',#345);
#92=VERTEX_POINT('',#347);
#93=VERTEX_POINT('',#352);
#94=VERTEX_POINT('',#353);
#95=VERTEX_POINT('',#358);
#96=VERTEX_POINT('',#365);
#97=VERTEX_POINT('',#367);
#98=VERTEX_POINT('',#372);
#99=VERTEX_POINT('',#374);
#100=VERTEX_POINT('',#379);
#101=VERTEX_POINT('',#401);
#102=VERTEX_POINT('',#406);
#103=EDGE_CURVE('',#86,#86,#71,.T.);
#104=EDGE_CURVE('',#86,#87,#61,.T.);
#105=EDGE_CURVE('',#87,#87,#72,.T.);
#106=EDGE_CURVE('',#88,#89,#23,.T.);
#107=EDGE_CURVE('',#89,#90,#24,.T.);
#108=EDGE_CURVE('',#88,#90,#73,.T.);
#109=EDGE_CURVE('',#91,#91,#74,.T.);
#110=EDGE_CURVE('',#91,#92,#62,.T.);
#111=EDGE_CURVE('',#88,#92,#75,.T.);
#112=EDGE_CURVE('',#92,#90,#76,.T.);
#113=EDGE_CURVE('',#93,#94,#25,.T.);
#114=EDGE_CURVE('',#95,#94,#77,.T.);
#115=EDGE_CURVE('',#95,#93,#26,.T.);
#116=EDGE_CURVE('',#96,#96,#78,.T.);
#117=EDGE_CURVE('',#96,#97,#63,.T.);
#118=EDGE_CURVE('',#95,#97,#79,.T.);
#119=EDGE_CURVE('',#97,#94,#80,.T.);
#120=EDGE_CURVE('',#90,#98,#81,.T.);
#121=EDGE_CURVE('',#99,#98,#19,.T.);
#122=EDGE_CURVE('',#99,#88,#82,.T.);
#123=EDGE_CURVE('',#94,#99,#83,.T.);
#124=EDGE_CURVE('',#100,#99,#20,.T.);
#125=EDGE_CURVE('',#98,#100,#21,.T.);
#126=EDGE_CURVE('',#98,#95,#84,.T.);
#127=EDGE_CURVE('',#101,#101,#22,.T.);
#128=EDGE_CURVE('',#101,#100,#64,.T.);
#129=EDGE_CURVE('',#99,#102,#65,.T.);
#130=EDGE_CURVE('',#102,#102,#85,.T.);
#131=ORIENTED_EDGE('',*,*,#103,.F.);
#132=ORIENTED_EDGE('',*,*,#104,.T.);
#133=ORIENTED_EDGE('',*,*,#105,.F.);
#134=ORIENTED_EDGE('',*,*,#104,.F.);
#135=ORIENTED_EDGE('',*,*,#103,.T.);
#136=ORIENTED_EDGE('',*,*,#106,.T.);
#137=ORIENTED_EDGE('',*,*,#107,.T.);
#138=ORIENTED_EDGE('',*,*,#108,.F.);
#139=ORIENTED_EDGE('',*,*,#109,.F.);
#140=ORIENTED_EDGE('',*,*,#110,.T.);
#141=ORIENTED_EDGE('',*,*,#111,.F.);
#142=ORIENTED_EDGE('',*,*,#108,.T.);
#143=ORIENTED_EDGE('',*,*,#112,.F.);
#144=ORIENTED_EDGE('',*,*,#110,.F.);
#145=ORIENTED_EDGE('',*,*,#113,.T.);
#146=ORIENTED_EDGE('',*,*,#114,.F.);
#147=ORIENTED_EDGE('',*,*,#115,.T.);
#148=ORIENTED_EDGE('',*,*,#116,.F.);
#149=ORIENTED_EDGE('',*,*,#117,.T.);
#150=ORIENTED_EDGE('',*,*,#118,.F.);
#151=ORIENTED_EDGE('',*,*,#114,.T.);
#152=ORIENTED_EDGE('',*,*,#119,.F.);
#153=ORIENTED_EDGE('',*,*,#117,.F.);
#154=ORIENTED_EDGE('',*,*,#111,.T.);
#155=ORIENTED_EDGE('',*,*,#112,.T.);
#156=ORIENTED_EDGE('',*,*,#120,.T.);
#157=ORIENTED_EDGE('',*,*,#121,.F.);
#158=ORIENTED_EDGE('',*,*,#122,.T.);
#159=ORIENTED_EDGE('',*,*,#118,.T.);
#160=ORIENTED_EDGE('',*,*,#119,.T.);
#161=ORIENTED_EDGE('',*,*,#123,.T.);
#162=ORIENTED_EDGE('',*,*,#124,.F.);
#163=ORIENTED_EDGE('',*,*,#125,.F.);
#164=ORIENTED_EDGE('',*,*,#126,.T.);
#165=ORIENTED_EDGE('',*,*,#127,.F.);
#166=ORIENTED_EDGE('',*,*,#128,.T.);
#167=ORIENTED_EDGE('',*,*,#124,.T.);
#168=ORIENTED_EDGE('',*,*,#121,.T.);
#169=ORIENTED_EDGE('',*,*,#125,.T.);
#170=ORIENTED_EDGE('',*,*,#128,.F.);
#171=ORIENTED_EDGE('',*,*,#127,.T.);
#172=ORIENTED_EDGE('',*,*,#109,.T.);
#173=ORIENTED_EDGE('',*,*,#116,.T.);
#174=ORIENTED_EDGE('',*,*,#106,.F.);
#175=ORIENTED_EDGE('',*,*,#122,.F.);
#176=ORIENTED_EDGE('',*,*,#129,.T.);
#177=ORIENTED_EDGE('',*,*,#130,.T.);
#178=ORIENTED_EDGE('',*,*,#129,.F.);
#179=ORIENTED_EDGE('',*,*,#123,.F.);
#180=ORIENTED_EDGE('',*,*,#113,.F.);
#181=ORIENTED_EDGE('',*,*,#115,.F.);
#182=ORIENTED_EDGE('',*,*,#126,.F.);
#183=ORIENTED_EDGE('',*,*,#120,.F.);
#184=ORIENTED_EDGE('',*,*,#107,.F.);
#185=ORIENTED_EDGE('',*,*,#130,.F.);
#186=ORIENTED_EDGE('',*,*,#105,.T.);
#187=CYLINDRICAL_SURFACE('',#226,3.);
#188=CYLINDRICAL_SURFACE('',#232,1.621);
#189=CYLINDRICAL_SURFACE('',#238,1.621);
#190=CYLINDRICAL_SURFACE('',#253,5.);
#191=ADVANCED_FACE('',(#34),#187,.T.);
#192=ADVANCED_FACE('',(#35),#29,.T.);
#193=ADVANCED_FACE('',(#36),#27,.F.);
#194=ADVANCED_FACE('',(#37),#188,.F.);
#195=ADVANCED_FACE('',(#38),#28,.F.);
#196=ADVANCED_FACE('',(#39),#189,.F.);
#197=ADVANCED_FACE('',(#40),#30,.F.);
#198=ADVANCED_FACE('',(#41),#31,.F.);
#199=ADVANCED_FACE('',(#42),#18,.F.);
#200=ADVANCED_FACE('',(#43,#15,#16),#32,.T.);
#201=ADVANCED_FACE('',(#44),#190,.T.);
#202=ADVANCED_FACE('',(#45,#17),#33,.F.);
#203=CLOSED_SHELL('',(#191,#192,#193,#194,#195,#196,#197,#198,#199,#200,
#201,#202));
#204=DERIVED_UNIT_ELEMENT(#207,1.);
#205=DERIVED_UNIT_ELEMENT(#415,-3.);
#206=DIMENSIONAL_EXPONENTS(0.,1.,0.,0.,0.,0.,0.);
#207=(
CONVERSION_BASED_UNIT('gram',#209)
MASS_UNIT()
NAMED_UNIT(#206)
);
#208=(
MASS_UNIT()
NAMED_UNIT(*)
SI_UNIT(.KILO.,.GRAM.)
);
#209=MASS_MEASURE_WITH_UNIT(MASS_MEASURE(0.001),#208);
#210=DERIVED_UNIT((#204,#205));
#211=MEASURE_REPRESENTATION_ITEM('density measure',
POSITIVE_RATIO_MEASURE(7.85),#210);
#212=PROPERTY_DEFINITION_REPRESENTATION(#217,#214);
#213=PROPERTY_DEFINITION_REPRESENTATION(#218,#215);
#214=REPRESENTATION('material name',(#216),#412);
#215=REPRESENTATION('density',(#211),#412);
#216=DESCRIPTIVE_REPRESENTATION_ITEM('Acier','Acier');
#217=PROPERTY_DEFINITION('material property','material name',#422);
#218=PROPERTY_DEFINITION('material property','density of part',#422);
#219=DATE_TIME_ROLE('creation_date');
#220=APPLIED_DATE_AND_TIME_ASSIGNMENT(#221,#219,(#422));
#221=DATE_AND_TIME(#222,#223);
#222=CALENDAR_DATE(2023,29,3);
#223=LOCAL_TIME(0,0,0.,#224);
#224=COORDINATED_UNIVERSAL_TIME_OFFSET(0,0,.BEHIND.);
#225=AXIS2_PLACEMENT_3D('',#323,#256,#257);
#226=AXIS2_PLACEMENT_3D('',#324,#258,#259);
#227=AXIS2_PLACEMENT_3D('',#326,#260,#261);
#228=AXIS2_PLACEMENT_3D('',#329,#263,#264);
#229=AXIS2_PLACEMENT_3D('',#330,#265,#266);
#230=AXIS2_PLACEMENT_3D('',#331,#267,#268);
#231=AXIS2_PLACEMENT_3D('',#343,#269,#270);
#232=AXIS2_PLACEMENT_3D('',#344,#271,#272);
#233=AXIS2_PLACEMENT_3D('',#346,#273,#274);
#234=AXIS2_PLACEMENT_3D('',#349,#276,#277);
#235=AXIS2_PLACEMENT_3D('',#350,#278,#279);
#236=AXIS2_PLACEMENT_3D('',#351,#280,#281);
#237=AXIS2_PLACEMENT_3D('',#359,#282,#283);
#238=AXIS2_PLACEMENT_3D('',#364,#284,#285);
#239=AXIS2_PLACEMENT_3D('',#366,#286,#287);
#240=AXIS2_PLACEMENT_3D('',#369,#289,#290);
#241=AXIS2_PLACEMENT_3D('',#370,#291,#292);
#242=AXIS2_PLACEMENT_3D('',#371,#293,#294);
#243=AXIS2_PLACEMENT_3D('',#373,#295,#296);
#244=AXIS2_PLACEMENT_3D('',#375,#297,#298);
#245=AXIS2_PLACEMENT_3D('',#376,#299,#300);
#246=AXIS2_PLACEMENT_3D('',#377,#301,#302);
#247=AXIS2_PLACEMENT_3D('',#378,#303,#304);
#248=AXIS2_PLACEMENT_3D('',#380,#305,#306);
#249=AXIS2_PLACEMENT_3D('',#381,#307,#308);
#250=AXIS2_PLACEMENT_3D('',#382,#309,#310);
#251=AXIS2_PLACEMENT_3D('',#402,#311,#312);
#252=AXIS2_PLACEMENT_3D('',#404,#314,#315);
#253=AXIS2_PLACEMENT_3D('',#405,#316,#317);
#254=AXIS2_PLACEMENT_3D('',#408,#319,#320);
#255=AXIS2_PLACEMENT_3D('',#409,#321,#322);
#256=DIRECTION('axis',(0.,0.,1.));
#257=DIRECTION('refdir',(1.,0.,0.));
#258=DIRECTION('center_axis',(0.,0.,-1.));
#259=DIRECTION('ref_axis',(-1.,0.,0.));
#260=DIRECTION('center_axis',(0.,0.,-1.));
#261=DIRECTION('ref_axis',(-1.,0.,0.));
#262=DIRECTION('',(0.,0.,1.));
#263=DIRECTION('center_axis',(0.,0.,1.));
#264=DIRECTION('ref_axis',(-1.,0.,0.));
#265=DIRECTION('center_axis',(0.,0.,-1.));
#266=DIRECTION('ref_axis',(-1.,0.,0.));
#267=DIRECTION('center_axis',(0.,0.,1.));
#268=DIRECTION('ref_axis',(1.,0.,0.));
#269=DIRECTION('center_axis',(0.,0.,-1.));
#270=DIRECTION('ref_axis',(1.,0.,0.));
#271=DIRECTION('center_axis',(0.,0.,1.));
#272=DIRECTION('ref_axis',(1.,0.,0.));
#273=DIRECTION('center_axis',(0.,0.,-1.));
#274=DIRECTION('ref_axis',(1.,0.,0.));
#275=DIRECTION('',(0.,0.,-1.));
#276=DIRECTION('center_axis',(0.,0.,1.));
#277=DIRECTION('ref_axis',(1.,0.,0.));
#278=DIRECTION('center_axis',(0.,0.,1.));
#279=DIRECTION('ref_axis',(1.,0.,0.));
#280=DIRECTION('center_axis',(0.,0.,1.));
#281=DIRECTION('ref_axis',(1.,0.,0.));
#282=DIRECTION('center_axis',(0.,0.,-1.));
#283=DIRECTION('ref_axis',(1.,0.,0.));
#284=DIRECTION('center_axis',(0.,0.,1.));
#285=DIRECTION('ref_axis',(1.,0.,0.));
#286=DIRECTION('center_axis',(0.,0.,-1.));
#287=DIRECTION('ref_axis',(1.,0.,0.));
#288=DIRECTION('',(0.,0.,-1.));
#289=DIRECTION('center_axis',(0.,0.,1.));
#290=DIRECTION('ref_axis',(1.,0.,0.));
#291=DIRECTION('center_axis',(0.,0.,1.));
#292=DIRECTION('ref_axis',(1.,0.,0.));
#293=DIRECTION('center_axis',(0.,0.,1.));
#294=DIRECTION('ref_axis',(1.,0.,0.));
#295=DIRECTION('center_axis',(0.,0.,1.));
#296=DIRECTION('ref_axis',(1.,0.,0.));
#297=DIRECTION('center_axis',(0.,0.,1.));
#298=DIRECTION('ref_axis',(0.,-1.,0.));
#299=DIRECTION('center_axis',(0.,0.,1.));
#300=DIRECTION('ref_axis',(1.,0.,0.));
#301=DIRECTION('center_axis',(0.,0.,1.));
#302=DIRECTION('ref_axis',(1.,0.,0.));
#303=DIRECTION('center_axis',(0.,0.,1.));
#304=DIRECTION('ref_axis',(1.,0.,0.));
#305=DIRECTION('center_axis',(0.,0.,1.));
#306=DIRECTION('ref_axis',(0.,-1.,0.));
#307=DIRECTION('center_axis',(0.,0.,1.));
#308=DIRECTION('ref_axis',(0.,-1.,0.));
#309=DIRECTION('center_axis',(0.,0.,1.));
#310=DIRECTION('ref_axis',(1.,0.,0.));
#311=DIRECTION('center_axis',(0.,0.,1.));
#312=DIRECTION('ref_axis',(0.,-1.,0.));
#313=DIRECTION('',(0.,0.,-1.));
#314=DIRECTION('center_axis',(0.,0.,1.));
#315=DIRECTION('ref_axis',(1.,0.,0.));
#316=DIRECTION('center_axis',(0.,0.,1.));
#317=DIRECTION('ref_axis',(1.,0.,0.));
#318=DIRECTION('',(0.,0.,-1.));
#319=DIRECTION('center_axis',(0.,0.,1.));
#320=DIRECTION('ref_axis',(1.,0.,0.));
#321=DIRECTION('center_axis',(0.,0.,1.));
#322=DIRECTION('ref_axis',(1.,0.,0.));
#323=CARTESIAN_POINT('',(0.,0.,0.));
#324=CARTESIAN_POINT('Origin',(0.,0.,0.));
#325=CARTESIAN_POINT('',(3.,-3.67394039744206E-16,-12.));
#326=CARTESIAN_POINT('Origin',(0.,0.,-12.));
#327=CARTESIAN_POINT('',(3.,-3.67394039744206E-16,0.));
#328=CARTESIAN_POINT('',(3.,-3.67394039744206E-16,0.));
#329=CARTESIAN_POINT('Origin',(0.,0.,0.));
#330=CARTESIAN_POINT('Origin',(0.,0.,-12.));
#331=CARTESIAN_POINT('Origin',(0.,-5.,17.0130024682782));
#332=CARTESIAN_POINT('',(-1.59956119850139,-4.7372359,17.5));
#333=CARTESIAN_POINT('',(0.,-5.,16.5260049365563));
#334=CARTESIAN_POINT('Ctrl Pts',(-1.59956119850139,-4.73723589999998,17.5));
#335=CARTESIAN_POINT('Ctrl Pts',(-1.0716809168765,-4.91547840971776,17.1696517435964));
#336=CARTESIAN_POINT('Ctrl Pts',(-0.519326716720609,-5.,16.8380479090426));
#337=CARTESIAN_POINT('Ctrl Pts',(0.,-5.,16.5260049365563));
#338=CARTESIAN_POINT('',(1.59956119850139,-4.7372359,17.5));
#339=CARTESIAN_POINT('Ctrl Pts',(0.,-5.,16.5260049365563));
#340=CARTESIAN_POINT('Ctrl Pts',(0.520238037028717,-5.,16.8385954855271));
#341=CARTESIAN_POINT('Ctrl Pts',(1.0719226921133,-4.91539677259948,17.1698030468951));
#342=CARTESIAN_POINT('Ctrl Pts',(1.59956119850139,-4.7372359,17.5));
#343=CARTESIAN_POINT('Origin',(0.,-5.,17.5));
#344=CARTESIAN_POINT('Origin',(0.,-5.,-7.94361719689456));
#345=CARTESIAN_POINT('',(-1.621,-5.,27.5));
#346=CARTESIAN_POINT('Origin',(0.,-5.,27.5));
#347=CARTESIAN_POINT('',(-1.621,-5.,17.5));
#348=CARTESIAN_POINT('',(-1.621,-5.,-7.94361719689456));
#349=CARTESIAN_POINT('Origin',(0.,-5.,17.5));
#350=CARTESIAN_POINT('Origin',(0.,-5.,17.5));
#351=CARTESIAN_POINT('Origin',(0.,5.,17.0130024682782));
#352=CARTESIAN_POINT('',(0.,5.,16.5260049365563));
#353=CARTESIAN_POINT('',(-1.59956119850139,4.7372359,17.5));
#354=CARTESIAN_POINT('Ctrl Pts',(0.,5.,16.5260049365563));
#355=CARTESIAN_POINT('Ctrl Pts',(-0.520238037028716,5.,16.8385954855271));
#356=CARTESIAN_POINT('Ctrl Pts',(-1.0719226921133,4.91539677259948,17.1698030468951));
#357=CARTESIAN_POINT('Ctrl Pts',(-1.59956119850139,4.7372359,17.5));
#358=CARTESIAN_POINT('',(1.59956119850139,4.7372359,17.5));
#359=CARTESIAN_POINT('Origin',(0.,5.,17.5));
#360=CARTESIAN_POINT('Ctrl Pts',(1.59956119850139,4.73723589999998,17.5));
#361=CARTESIAN_POINT('Ctrl Pts',(1.0716809168765,4.91547840971776,17.1696517435964));
#362=CARTESIAN_POINT('Ctrl Pts',(0.51932671672061,5.,16.8380479090426));
#363=CARTESIAN_POINT('Ctrl Pts',(0.,5.,16.5260049365563));
#364=CARTESIAN_POINT('Origin',(0.,5.,-7.94361719689456));
#365=CARTESIAN_POINT('',(-1.621,5.,27.5));
#366=CARTESIAN_POINT('Origin',(0.,5.,27.5));
#367=CARTESIAN_POINT('',(-1.621,5.,17.5));
#368=CARTESIAN_POINT('',(-1.621,5.,-7.94361719689456));
#369=CARTESIAN_POINT('Origin',(0.,5.,17.5));
#370=CARTESIAN_POINT('Origin',(0.,5.,17.5));
#371=CARTESIAN_POINT('Origin',(0.,0.,17.5));
#372=CARTESIAN_POINT('',(5.,0.,17.5));
#373=CARTESIAN_POINT('Origin',(0.,0.,17.5));
#374=CARTESIAN_POINT('',(-5.,0.,17.5));
#375=CARTESIAN_POINT('Origin',(0.,0.,17.5));
#376=CARTESIAN_POINT('Origin',(0.,0.,17.5));
#377=CARTESIAN_POINT('Origin',(0.,0.,17.5));
#378=CARTESIAN_POINT('Origin',(0.,0.,17.5));
#379=CARTESIAN_POINT('',(-6.12323399573677E-16,10.,17.5));
#380=CARTESIAN_POINT('Origin',(0.,0.,17.5));
#381=CARTESIAN_POINT('Origin',(0.,0.,17.5));
#382=CARTESIAN_POINT('Origin',(0.,0.,17.5));
#383=CARTESIAN_POINT('Ctrl Pts',(0.,10.,17.5));
#384=CARTESIAN_POINT('Ctrl Pts',(-5.,10.,17.5));
#385=CARTESIAN_POINT('Ctrl Pts',(-5.,0.,17.5));
#386=CARTESIAN_POINT('Ctrl Pts',(-5.,-10.,17.5));
#387=CARTESIAN_POINT('Ctrl Pts',(0.,-10.,17.5));
#388=CARTESIAN_POINT('Ctrl Pts',(5.,-10.,17.5));
#389=CARTESIAN_POINT('Ctrl Pts',(5.,0.,17.5));
#390=CARTESIAN_POINT('Ctrl Pts',(5.,10.,17.5));
#391=CARTESIAN_POINT('Ctrl Pts',(0.,10.,17.5));
#392=CARTESIAN_POINT('Ctrl Pts',(0.,10.,27.5));
#393=CARTESIAN_POINT('Ctrl Pts',(-5.,10.,27.5));
#394=CARTESIAN_POINT('Ctrl Pts',(-5.,0.,27.5));
#395=CARTESIAN_POINT('Ctrl Pts',(-5.,-10.,27.5));
#396=CARTESIAN_POINT('Ctrl Pts',(0.,-10.,27.5));
#397=CARTESIAN_POINT('Ctrl Pts',(5.,-10.,27.5));
#398=CARTESIAN_POINT('Ctrl Pts',(5.,0.,27.5));
#399=CARTESIAN_POINT('Ctrl Pts',(5.,10.,27.5));
#400=CARTESIAN_POINT('Ctrl Pts',(0.,10.,27.5));
#401=CARTESIAN_POINT('',(-6.12323399573677E-16,10.,27.5));
#402=CARTESIAN_POINT('Origin',(0.,0.,27.5));
#403=CARTESIAN_POINT('',(-6.12323399573677E-16,10.,17.5));
#404=CARTESIAN_POINT('Origin',(0.,0.,27.5));
#405=CARTESIAN_POINT('Origin',(0.,0.,0.));
#406=CARTESIAN_POINT('',(-5.,-6.12323399573677E-16,0.));
#407=CARTESIAN_POINT('',(-5.,-6.12323399573677E-16,0.));
#408=CARTESIAN_POINT('Origin',(0.,0.,0.));
#409=CARTESIAN_POINT('Origin',(0.,0.,0.));
#410=UNCERTAINTY_MEASURE_WITH_UNIT(LENGTH_MEASURE(0.01),#414,
'DISTANCE_ACCURACY_VALUE',
'Maximum model space distance between geometric entities at asserted c
onnectivities');
#411=UNCERTAINTY_MEASURE_WITH_UNIT(LENGTH_MEASURE(0.01),#414,
'DISTANCE_ACCURACY_VALUE',
'Maximum model space distance between geometric entities at asserted c
onnectivities');
#412=(
GEOMETRIC_REPRESENTATION_CONTEXT(3)
GLOBAL_UNCERTAINTY_ASSIGNED_CONTEXT((#410))
GLOBAL_UNIT_ASSIGNED_CONTEXT((#414,#416,#417))
REPRESENTATION_CONTEXT('','3D')
);
#413=(
GEOMETRIC_REPRESENTATION_CONTEXT(3)
GLOBAL_UNCERTAINTY_ASSIGNED_CONTEXT((#411))
GLOBAL_UNIT_ASSIGNED_CONTEXT((#414,#416,#417))
REPRESENTATION_CONTEXT('','3D')
);
#414=(
LENGTH_UNIT()
NAMED_UNIT(*)
SI_UNIT(.MILLI.,.METRE.)
);
#415=(
LENGTH_UNIT()
NAMED_UNIT(*)
SI_UNIT(.CENTI.,.METRE.)
);
#416=(
NAMED_UNIT(*)
PLANE_ANGLE_UNIT()
SI_UNIT($,.RADIAN.)
);
#417=(
NAMED_UNIT(*)
SI_UNIT($,.STERADIAN.)
SOLID_ANGLE_UNIT()
);
#418=SHAPE_DEFINITION_REPRESENTATION(#419,#420);
#419=PRODUCT_DEFINITION_SHAPE('',$,#422);
#420=SHAPE_REPRESENTATION('',(#225),#412);
#421=PRODUCT_DEFINITION_CONTEXT('part definition',#426,'design');
#422=PRODUCT_DEFINITION('Axe came','Axe came',#423,#421);
#423=PRODUCT_DEFINITION_FORMATION('',$,#428);
#424=PRODUCT_RELATED_PRODUCT_CATEGORY('Axe came','Axe came',(#428));
#425=APPLICATION_PROTOCOL_DEFINITION('international standard',
'automotive_design',2009,#426);
#426=APPLICATION_CONTEXT(
'Core Data for Automotive Mechanical Design Process');
#427=PRODUCT_CONTEXT('part definition',#426,'mechanical');
#428=PRODUCT('Axe came','Axe came',$,(#427));
#429=PRESENTATION_STYLE_ASSIGNMENT((#430));
#430=SURFACE_STYLE_USAGE(.BOTH.,#433);
#431=SURFACE_STYLE_RENDERING_WITH_PROPERTIES($,#437,(#432));
#432=SURFACE_STYLE_TRANSPARENT(0.);
#433=SURFACE_SIDE_STYLE('',(#434,#431));
#434=SURFACE_STYLE_FILL_AREA(#435);
#435=FILL_AREA_STYLE('',(#436));
#436=FILL_AREA_STYLE_COLOUR('',#437);
#437=COLOUR_RGB('',0.8,0.,0.);
ENDSEC;
END-ISO-10303-21;
