ISO-10303-21;
HEADER;
/* Generated by software containing ST-Developer
 * from STEP Tools, Inc. (www.steptools.com) 
 */

FILE_DESCRIPTION(
/* description */ (''),
/* implementation_level */ '2;1');

FILE_NAME(
/* name */ 'Upper tube.step',
/* time_stamp */ '2023-02-28T15:42:55+01:00',
/* author */ (''),
/* organization */ (''),
/* preprocessor_version */ 'ST-DEVELOPER v19.2',
/* originating_system */ 'Autodesk Translation Framework v11.17.0.187',

/* authorisation */ '');

FILE_SCHEMA (('AUTOMOTIVE_DESIGN { 1 0 10303 214 3 1 1 }'));
ENDSEC;

DATA;
#10=MECHANICAL_DESIGN_GEOMETRIC_PRESENTATION_REPRESENTATION('',(#13),#399);
#11=SHAPE_REPRESENTATION_RELATIONSHIP('SRR','None',#406,#12);
#12=ADVANCED_BREP_SHAPE_REPRESENTATION('',(#14),#398);
#13=STYLED_ITEM('',(#415),#14);
#14=MANIFOLD_SOLID_BREP('Body1',#208);
#15=TOROIDAL_SURFACE('',#233,75.0000000000531,10.5);
#16=TOROIDAL_SURFACE('',#240,74.9999999999739,10.5);
#17=TOROIDAL_SURFACE('',#245,75.0000000000531,12.5);
#18=TOROIDAL_SURFACE('',#252,74.9999999999739,12.5);
#19=ELLIPSE('',#231,17.6776695296636,12.5);
#20=ELLIPSE('',#232,14.8492424049174,10.5);
#21=FACE_BOUND('',#40,.T.);
#22=FACE_BOUND('',#42,.T.);
#23=PLANE('',#229);
#24=PLANE('',#230);
#25=FACE_OUTER_BOUND('',#37,.T.);
#26=FACE_OUTER_BOUND('',#38,.T.);
#27=FACE_OUTER_BOUND('',#39,.T.);
#28=FACE_OUTER_BOUND('',#41,.T.);
#29=FACE_OUTER_BOUND('',#43,.T.);
#30=FACE_OUTER_BOUND('',#44,.T.);
#31=FACE_OUTER_BOUND('',#45,.T.);
#32=FACE_OUTER_BOUND('',#46,.T.);
#33=FACE_OUTER_BOUND('',#47,.T.);
#34=FACE_OUTER_BOUND('',#48,.T.);
#35=FACE_OUTER_BOUND('',#49,.T.);
#36=FACE_OUTER_BOUND('',#50,.T.);
#37=EDGE_LOOP('',(#132,#133,#134,#135));
#38=EDGE_LOOP('',(#136,#137,#138,#139,#140));
#39=EDGE_LOOP('',(#141));
#40=EDGE_LOOP('',(#142));
#41=EDGE_LOOP('',(#143));
#42=EDGE_LOOP('',(#144));
#43=EDGE_LOOP('',(#145,#146,#147,#148,#149));
#44=EDGE_LOOP('',(#150,#151,#152,#153,#154,#155));
#45=EDGE_LOOP('',(#156,#157,#158,#159,#160,#161));
#46=EDGE_LOOP('',(#162,#163,#164,#165,#166));
#47=EDGE_LOOP('',(#167,#168,#169,#170,#171,#172));
#48=EDGE_LOOP('',(#173,#174,#175,#176,#177,#178));
#49=EDGE_LOOP('',(#179,#180,#181,#182,#183,#184));
#50=EDGE_LOOP('',(#185,#186,#187,#188,#189));
#51=LINE('',#340,#57);
#52=LINE('',#346,#58);
#53=LINE('',#366,#59);
#54=LINE('',#375,#60);
#55=LINE('',#384,#61);
#56=LINE('',#395,#62);
#57=VECTOR('',#263,10.5);
#58=VECTOR('',#270,12.5);
#59=VECTOR('',#295,10.5);
#60=VECTOR('',#308,10.5);
#61=VECTOR('',#319,12.5);
#62=VECTOR('',#334,12.5);
#63=CIRCLE('',#223,10.5);
#64=CIRCLE('',#224,10.5);
#65=CIRCLE('',#226,12.5);
#66=CIRCLE('',#227,12.5);
#67=CIRCLE('',#228,12.5);
#68=CIRCLE('',#234,10.5);
#69=CIRCLE('',#235,10.5);
#70=CIRCLE('',#236,64.5000000000531);
#71=CIRCLE('',#238,10.5);
#72=CIRCLE('',#239,10.5);
#73=CIRCLE('',#241,10.5);
#74=CIRCLE('',#242,10.5);
#75=CIRCLE('',#243,64.4999999999739);
#76=CIRCLE('',#246,62.5000000000531);
#77=CIRCLE('',#247,12.5);
#78=CIRCLE('',#248,12.5);
#79=CIRCLE('',#250,12.5);
#80=CIRCLE('',#251,12.5);
#81=CIRCLE('',#253,62.4999999999739);
#82=CIRCLE('',#254,12.5);
#83=CIRCLE('',#255,12.5);
#84=VERTEX_POINT('',#337);
#85=VERTEX_POINT('',#339);
#86=VERTEX_POINT('',#343);
#87=VERTEX_POINT('',#345);
#88=VERTEX_POINT('',#347);
#89=VERTEX_POINT('',#352);
#90=VERTEX_POINT('',#354);
#91=VERTEX_POINT('',#357);
#92=VERTEX_POINT('',#358);
#93=VERTEX_POINT('',#363);
#94=VERTEX_POINT('',#364);
#95=VERTEX_POINT('',#369);
#96=VERTEX_POINT('',#370);
#97=VERTEX_POINT('',#377);
#98=VERTEX_POINT('',#379);
#99=VERTEX_POINT('',#383);
#100=VERTEX_POINT('',#385);
#101=VERTEX_POINT('',#389);
#102=VERTEX_POINT('',#391);
#103=EDGE_CURVE('',#84,#84,#63,.T.);
#104=EDGE_CURVE('',#84,#85,#51,.T.);
#105=EDGE_CURVE('',#85,#85,#64,.T.);
#106=EDGE_CURVE('',#86,#86,#65,.T.);
#107=EDGE_CURVE('',#86,#87,#52,.T.);
#108=EDGE_CURVE('',#87,#88,#66,.T.);
#109=EDGE_CURVE('',#88,#87,#67,.T.);
#110=EDGE_CURVE('',#89,#89,#19,.T.);
#111=EDGE_CURVE('',#90,#90,#20,.T.);
#112=EDGE_CURVE('',#91,#92,#68,.T.);
#113=EDGE_CURVE('',#92,#91,#69,.T.);
#114=EDGE_CURVE('',#92,#85,#70,.T.);
#115=EDGE_CURVE('',#93,#94,#71,.T.);
#116=EDGE_CURVE('',#93,#91,#53,.T.);
#117=EDGE_CURVE('',#94,#93,#72,.T.);
#118=EDGE_CURVE('',#95,#96,#73,.T.);
#119=EDGE_CURVE('',#96,#95,#74,.T.);
#120=EDGE_CURVE('',#96,#94,#75,.T.);
#121=EDGE_CURVE('',#90,#95,#54,.T.);
#122=EDGE_CURVE('',#88,#97,#76,.T.);
#123=EDGE_CURVE('',#97,#98,#77,.T.);
#124=EDGE_CURVE('',#98,#97,#78,.T.);
#125=EDGE_CURVE('',#98,#99,#55,.T.);
#126=EDGE_CURVE('',#99,#100,#79,.T.);
#127=EDGE_CURVE('',#100,#99,#80,.T.);
#128=EDGE_CURVE('',#100,#101,#81,.T.);
#129=EDGE_CURVE('',#101,#102,#82,.T.);
#130=EDGE_CURVE('',#102,#101,#83,.T.);
#131=EDGE_CURVE('',#102,#89,#56,.T.);
#132=ORIENTED_EDGE('',*,*,#103,.F.);
#133=ORIENTED_EDGE('',*,*,#104,.T.);
#134=ORIENTED_EDGE('',*,*,#105,.T.);
#135=ORIENTED_EDGE('',*,*,#104,.F.);
#136=ORIENTED_EDGE('',*,*,#106,.F.);
#137=ORIENTED_EDGE('',*,*,#107,.T.);
#138=ORIENTED_EDGE('',*,*,#108,.T.);
#139=ORIENTED_EDGE('',*,*,#109,.T.);
#140=ORIENTED_EDGE('',*,*,#107,.F.);
#141=ORIENTED_EDGE('',*,*,#106,.T.);
#142=ORIENTED_EDGE('',*,*,#103,.T.);
#143=ORIENTED_EDGE('',*,*,#110,.T.);
#144=ORIENTED_EDGE('',*,*,#111,.T.);
#145=ORIENTED_EDGE('',*,*,#112,.F.);
#146=ORIENTED_EDGE('',*,*,#113,.F.);
#147=ORIENTED_EDGE('',*,*,#114,.T.);
#148=ORIENTED_EDGE('',*,*,#105,.F.);
#149=ORIENTED_EDGE('',*,*,#114,.F.);
#150=ORIENTED_EDGE('',*,*,#115,.F.);
#151=ORIENTED_EDGE('',*,*,#116,.T.);
#152=ORIENTED_EDGE('',*,*,#112,.T.);
#153=ORIENTED_EDGE('',*,*,#113,.T.);
#154=ORIENTED_EDGE('',*,*,#116,.F.);
#155=ORIENTED_EDGE('',*,*,#117,.F.);
#156=ORIENTED_EDGE('',*,*,#118,.F.);
#157=ORIENTED_EDGE('',*,*,#119,.F.);
#158=ORIENTED_EDGE('',*,*,#120,.T.);
#159=ORIENTED_EDGE('',*,*,#117,.T.);
#160=ORIENTED_EDGE('',*,*,#115,.T.);
#161=ORIENTED_EDGE('',*,*,#120,.F.);
#162=ORIENTED_EDGE('',*,*,#111,.F.);
#163=ORIENTED_EDGE('',*,*,#121,.T.);
#164=ORIENTED_EDGE('',*,*,#118,.T.);
#165=ORIENTED_EDGE('',*,*,#119,.T.);
#166=ORIENTED_EDGE('',*,*,#121,.F.);
#167=ORIENTED_EDGE('',*,*,#108,.F.);
#168=ORIENTED_EDGE('',*,*,#109,.F.);
#169=ORIENTED_EDGE('',*,*,#122,.T.);
#170=ORIENTED_EDGE('',*,*,#123,.T.);
#171=ORIENTED_EDGE('',*,*,#124,.T.);
#172=ORIENTED_EDGE('',*,*,#122,.F.);
#173=ORIENTED_EDGE('',*,*,#124,.F.);
#174=ORIENTED_EDGE('',*,*,#125,.T.);
#175=ORIENTED_EDGE('',*,*,#126,.T.);
#176=ORIENTED_EDGE('',*,*,#127,.T.);
#177=ORIENTED_EDGE('',*,*,#125,.F.);
#178=ORIENTED_EDGE('',*,*,#123,.F.);
#179=ORIENTED_EDGE('',*,*,#126,.F.);
#180=ORIENTED_EDGE('',*,*,#127,.F.);
#181=ORIENTED_EDGE('',*,*,#128,.T.);
#182=ORIENTED_EDGE('',*,*,#129,.T.);
#183=ORIENTED_EDGE('',*,*,#130,.T.);
#184=ORIENTED_EDGE('',*,*,#128,.F.);
#185=ORIENTED_EDGE('',*,*,#130,.F.);
#186=ORIENTED_EDGE('',*,*,#131,.T.);
#187=ORIENTED_EDGE('',*,*,#110,.F.);
#188=ORIENTED_EDGE('',*,*,#131,.F.);
#189=ORIENTED_EDGE('',*,*,#129,.F.);
#190=CYLINDRICAL_SURFACE('',#222,10.5);
#191=CYLINDRICAL_SURFACE('',#225,12.5);
#192=CYLINDRICAL_SURFACE('',#237,10.5);
#193=CYLINDRICAL_SURFACE('',#244,10.5);
#194=CYLINDRICAL_SURFACE('',#249,12.5);
#195=CYLINDRICAL_SURFACE('',#256,12.5);
#196=ADVANCED_FACE('',(#25),#190,.F.);
#197=ADVANCED_FACE('',(#26),#191,.T.);
#198=ADVANCED_FACE('',(#27,#21),#23,.F.);
#199=ADVANCED_FACE('',(#28,#22),#24,.F.);
#200=ADVANCED_FACE('',(#29),#15,.F.);
#201=ADVANCED_FACE('',(#30),#192,.F.);
#202=ADVANCED_FACE('',(#31),#16,.F.);
#203=ADVANCED_FACE('',(#32),#193,.F.);
#204=ADVANCED_FACE('',(#33),#17,.T.);
#205=ADVANCED_FACE('',(#34),#194,.T.);
#206=ADVANCED_FACE('',(#35),#18,.T.);
#207=ADVANCED_FACE('',(#36),#195,.T.);
#208=CLOSED_SHELL('',(#196,#197,#198,#199,#200,#201,#202,#203,#204,#205,
#206,#207));
#209=DERIVED_UNIT_ELEMENT(#211,1.);
#210=DERIVED_UNIT_ELEMENT(#401,-3.);
#211=(
MASS_UNIT()
NAMED_UNIT(*)
SI_UNIT(.KILO.,.GRAM.)
);
#212=DERIVED_UNIT((#209,#210));
#213=MEASURE_REPRESENTATION_ITEM('density measure',
POSITIVE_RATIO_MEASURE(2700.),#212);
#214=PROPERTY_DEFINITION_REPRESENTATION(#219,#216);
#215=PROPERTY_DEFINITION_REPRESENTATION(#220,#217);
#216=REPRESENTATION('material name',(#218),#398);
#217=REPRESENTATION('density',(#213),#398);
#218=DESCRIPTIVE_REPRESENTATION_ITEM('Aluminum 6061 T6 0 Cold Formed',
'Aluminum 6061 T6 0 Cold Formed');
#219=PROPERTY_DEFINITION('material property','material name',#408);
#220=PROPERTY_DEFINITION('material property','density of part',#408);
#221=AXIS2_PLACEMENT_3D('placement',#335,#257,#258);
#222=AXIS2_PLACEMENT_3D('',#336,#259,#260);
#223=AXIS2_PLACEMENT_3D('',#338,#261,#262);
#224=AXIS2_PLACEMENT_3D('',#341,#264,#265);
#225=AXIS2_PLACEMENT_3D('',#342,#266,#267);
#226=AXIS2_PLACEMENT_3D('',#344,#268,#269);
#227=AXIS2_PLACEMENT_3D('',#348,#271,#272);
#228=AXIS2_PLACEMENT_3D('',#349,#273,#274);
#229=AXIS2_PLACEMENT_3D('',#350,#275,#276);
#230=AXIS2_PLACEMENT_3D('',#351,#277,#278);
#231=AXIS2_PLACEMENT_3D('',#353,#279,#280);
#232=AXIS2_PLACEMENT_3D('',#355,#281,#282);
#233=AXIS2_PLACEMENT_3D('',#356,#283,#284);
#234=AXIS2_PLACEMENT_3D('',#359,#285,#286);
#235=AXIS2_PLACEMENT_3D('',#360,#287,#288);
#236=AXIS2_PLACEMENT_3D('',#361,#289,#290);
#237=AXIS2_PLACEMENT_3D('',#362,#291,#292);
#238=AXIS2_PLACEMENT_3D('',#365,#293,#294);
#239=AXIS2_PLACEMENT_3D('',#367,#296,#297);
#240=AXIS2_PLACEMENT_3D('',#368,#298,#299);
#241=AXIS2_PLACEMENT_3D('',#371,#300,#301);
#242=AXIS2_PLACEMENT_3D('',#372,#302,#303);
#243=AXIS2_PLACEMENT_3D('',#373,#304,#305);
#244=AXIS2_PLACEMENT_3D('',#374,#306,#307);
#245=AXIS2_PLACEMENT_3D('',#376,#309,#310);
#246=AXIS2_PLACEMENT_3D('',#378,#311,#312);
#247=AXIS2_PLACEMENT_3D('',#380,#313,#314);
#248=AXIS2_PLACEMENT_3D('',#381,#315,#316);
#249=AXIS2_PLACEMENT_3D('',#382,#317,#318);
#250=AXIS2_PLACEMENT_3D('',#386,#320,#321);
#251=AXIS2_PLACEMENT_3D('',#387,#322,#323);
#252=AXIS2_PLACEMENT_3D('',#388,#324,#325);
#253=AXIS2_PLACEMENT_3D('',#390,#326,#327);
#254=AXIS2_PLACEMENT_3D('',#392,#328,#329);
#255=AXIS2_PLACEMENT_3D('',#393,#330,#331);
#256=AXIS2_PLACEMENT_3D('',#394,#332,#333);
#257=DIRECTION('axis',(0.,0.,1.));
#258=DIRECTION('refdir',(1.,0.,0.));
#259=DIRECTION('center_axis',(0.,1.,1.27489725315808E-15));
#260=DIRECTION('ref_axis',(0.,1.27489725315808E-15,-1.));
#261=DIRECTION('center_axis',(0.,-1.,-2.8261664256308E-15));
#262=DIRECTION('ref_axis',(0.,1.27489725315808E-15,-1.));
#263=DIRECTION('',(0.,-1.,-1.27489725315808E-15));
#264=DIRECTION('center_axis',(0.,-1.,-1.27675647831893E-15));
#265=DIRECTION('ref_axis',(0.,1.27675647831893E-15,-1.));
#266=DIRECTION('center_axis',(0.,1.,1.27489725315808E-15));
#267=DIRECTION('ref_axis',(1.,0.,0.));
#268=DIRECTION('center_axis',(0.,1.,2.8261664256308E-15));
#269=DIRECTION('ref_axis',(1.,0.,0.));
#270=DIRECTION('',(0.,-1.,-1.27489725315808E-15));
#271=DIRECTION('center_axis',(0.,1.,1.27675647831893E-15));
#272=DIRECTION('ref_axis',(1.,0.,0.));
#273=DIRECTION('center_axis',(0.,1.,1.27675647831893E-15));
#274=DIRECTION('ref_axis',(1.,0.,0.));
#275=DIRECTION('center_axis',(0.,-1.,-2.8261664256308E-15));
#276=DIRECTION('ref_axis',(0.,2.8261664256308E-15,-1.));
#277=DIRECTION('center_axis',(0.,-0.707106781186551,0.707106781186544));
#278=DIRECTION('ref_axis',(1.,0.,0.));
#279=DIRECTION('center_axis',(0.,0.707106781186551,-0.707106781186544));
#280=DIRECTION('ref_axis',(0.,-0.707106781186544,-0.707106781186551));
#281=DIRECTION('center_axis',(0.,-0.707106781186551,0.707106781186544));
#282=DIRECTION('ref_axis',(0.,-0.707106781186544,-0.707106781186551));
#283=DIRECTION('center_axis',(1.,0.,0.));
#284=DIRECTION('ref_axis',(0.,0.,-1.));
#285=DIRECTION('center_axis',(0.,0.707106781186548,-0.707106781186547));
#286=DIRECTION('ref_axis',(1.,0.,0.));
#287=DIRECTION('center_axis',(0.,0.707106781186548,-0.707106781186547));
#288=DIRECTION('ref_axis',(1.,0.,0.));
#289=DIRECTION('center_axis',(1.,0.,0.));
#290=DIRECTION('ref_axis',(0.,0.,-1.));
#291=DIRECTION('center_axis',(0.,0.707106781186547,-0.707106781186548));
#292=DIRECTION('ref_axis',(1.,0.,0.));
#293=DIRECTION('center_axis',(0.,0.707106781186548,-0.707106781186547));
#294=DIRECTION('ref_axis',(1.,0.,0.));
#295=DIRECTION('',(0.,0.707106781186547,-0.707106781186548));
#296=DIRECTION('center_axis',(0.,0.707106781186548,-0.707106781186547));
#297=DIRECTION('ref_axis',(1.,0.,0.));
#298=DIRECTION('center_axis',(1.,0.,0.));
#299=DIRECTION('ref_axis',(0.,0.,-1.));
#300=DIRECTION('center_axis',(0.,-1.,-4.93088303505568E-17));
#301=DIRECTION('ref_axis',(1.,0.,0.));
#302=DIRECTION('center_axis',(0.,-1.,-4.93088303505568E-17));
#303=DIRECTION('ref_axis',(1.,0.,0.));
#304=DIRECTION('center_axis',(1.,0.,0.));
#305=DIRECTION('ref_axis',(0.,0.,-1.));
#306=DIRECTION('center_axis',(0.,-1.,0.));
#307=DIRECTION('ref_axis',(1.,0.,0.));
#308=DIRECTION('',(0.,-1.,0.));
#309=DIRECTION('center_axis',(1.,0.,0.));
#310=DIRECTION('ref_axis',(0.,0.,-1.));
#311=DIRECTION('center_axis',(-1.,0.,0.));
#312=DIRECTION('ref_axis',(0.,0.,-1.));
#313=DIRECTION('center_axis',(0.,0.707106781186548,-0.707106781186547));
#314=DIRECTION('ref_axis',(1.,0.,0.));
#315=DIRECTION('center_axis',(0.,0.707106781186548,-0.707106781186547));
#316=DIRECTION('ref_axis',(1.,0.,0.));
#317=DIRECTION('center_axis',(0.,0.707106781186547,-0.707106781186548));
#318=DIRECTION('ref_axis',(1.,0.,0.));
#319=DIRECTION('',(0.,-0.707106781186547,0.707106781186548));
#320=DIRECTION('center_axis',(0.,0.707106781186548,-0.707106781186547));
#321=DIRECTION('ref_axis',(1.,0.,0.));
#322=DIRECTION('center_axis',(0.,0.707106781186548,-0.707106781186547));
#323=DIRECTION('ref_axis',(1.,0.,0.));
#324=DIRECTION('center_axis',(1.,0.,0.));
#325=DIRECTION('ref_axis',(0.,0.,-1.));
#326=DIRECTION('center_axis',(-1.,0.,0.));
#327=DIRECTION('ref_axis',(0.,0.,-1.));
#328=DIRECTION('center_axis',(0.,-1.,-4.93088303505568E-17));
#329=DIRECTION('ref_axis',(1.,0.,0.));
#330=DIRECTION('center_axis',(0.,-1.,-4.93088303505568E-17));
#331=DIRECTION('ref_axis',(1.,0.,0.));
#332=DIRECTION('center_axis',(0.,-1.,0.));
#333=DIRECTION('ref_axis',(1.,0.,0.));
#334=DIRECTION('',(0.,1.,0.));
#335=CARTESIAN_POINT('',(0.,0.,0.));
#336=CARTESIAN_POINT('Origin',(-75.5,-87.9999999999999,21.));
#337=CARTESIAN_POINT('',(-75.5,-50.,31.5000000000001));
#338=CARTESIAN_POINT('Origin',(-75.5,-50.,21.0000000000001));
#339=CARTESIAN_POINT('',(-75.5,-87.9999999999999,31.5));
#340=CARTESIAN_POINT('',(-75.5,-87.9999999999999,31.5));
#341=CARTESIAN_POINT('Origin',(-75.5,-87.9999999999999,21.));
#342=CARTESIAN_POINT('Origin',(-75.5,-88.,21.));
#343=CARTESIAN_POINT('',(-88.,-50.,21.0000000000001));
#344=CARTESIAN_POINT('Origin',(-75.5,-50.,21.0000000000001));
#345=CARTESIAN_POINT('',(-88.,-87.9999999999999,21.));
#346=CARTESIAN_POINT('',(-88.,-88.,21.));
#347=CARTESIAN_POINT('',(-75.5,-88.,33.5));
#348=CARTESIAN_POINT('Origin',(-75.5,-88.,21.));
#349=CARTESIAN_POINT('Origin',(-75.5,-88.,21.));
#350=CARTESIAN_POINT('Origin',(-75.5,-50.,21.0000000000001));
#351=CARTESIAN_POINT('Origin',(-75.5,563.502525316942,240.));
#352=CARTESIAN_POINT('',(-88.,563.502525316942,240.));
#353=CARTESIAN_POINT('Origin',(-75.5,563.502525316942,240.));
#354=CARTESIAN_POINT('',(-86.,563.502525316942,240.));
#355=CARTESIAN_POINT('Origin',(-75.5,563.502525316942,240.));
#356=CARTESIAN_POINT('Origin',(-75.5,-88.,96.0000000000531));
#357=CARTESIAN_POINT('',(-86.,-141.033008589029,42.9669914110245));
#358=CARTESIAN_POINT('',(-75.5,-133.60838738657,50.3916126134833));
#359=CARTESIAN_POINT('Origin',(-75.5,-141.033008589029,42.9669914110245));
#360=CARTESIAN_POINT('Origin',(-75.5,-141.033008589029,42.9669914110245));
#361=CARTESIAN_POINT('Origin',(-75.5,-88.,96.0000000000531));
#362=CARTESIAN_POINT('Origin',(-75.5,-210.033008589058,111.966991411054));
#363=CARTESIAN_POINT('',(-86.,-210.033008589058,111.966991411054));
#364=CARTESIAN_POINT('',(-75.5,-202.608387386599,119.391612613512));
#365=CARTESIAN_POINT('Origin',(-75.5,-210.033008589058,111.966991411054));
#366=CARTESIAN_POINT('',(-86.,-210.033008589058,111.966991411054));
#367=CARTESIAN_POINT('Origin',(-75.5,-210.033008589058,111.966991411054));
#368=CARTESIAN_POINT('Origin',(-75.5,-157.000000000085,165.000000000026));
#369=CARTESIAN_POINT('',(-86.,-157.000000000085,240.));
#370=CARTESIAN_POINT('',(-75.5,-157.000000000085,229.5));
#371=CARTESIAN_POINT('Origin',(-75.5,-157.000000000085,240.));
#372=CARTESIAN_POINT('Origin',(-75.5,-157.000000000085,240.));
#373=CARTESIAN_POINT('Origin',(-75.5,-157.000000000085,165.000000000026));
#374=CARTESIAN_POINT('Origin',(-75.5,153.550277959535,240.));
#375=CARTESIAN_POINT('',(-86.,153.550277959535,240.));
#376=CARTESIAN_POINT('Origin',(-75.5,-88.,96.0000000000531));
#377=CARTESIAN_POINT('',(-75.5,-132.194173824197,51.8058261758564));
#378=CARTESIAN_POINT('Origin',(-75.5,-88.,96.0000000000531));
#379=CARTESIAN_POINT('',(-88.,-141.033008589029,42.9669914110245));
#380=CARTESIAN_POINT('Origin',(-75.5,-141.033008589029,42.9669914110245));
#381=CARTESIAN_POINT('Origin',(-75.5,-141.033008589029,42.9669914110245));
#382=CARTESIAN_POINT('Origin',(-75.5,-210.033008589058,111.966991411054));
#383=CARTESIAN_POINT('',(-88.,-210.033008589058,111.966991411054));
#384=CARTESIAN_POINT('',(-88.,-210.033008589058,111.966991411054));
#385=CARTESIAN_POINT('',(-75.5,-201.194173824226,120.805826175885));
#386=CARTESIAN_POINT('Origin',(-75.5,-210.033008589058,111.966991411054));
#387=CARTESIAN_POINT('Origin',(-75.5,-210.033008589058,111.966991411054));
#388=CARTESIAN_POINT('Origin',(-75.5,-157.000000000085,165.000000000026));
#389=CARTESIAN_POINT('',(-75.5,-157.000000000085,227.5));
#390=CARTESIAN_POINT('Origin',(-75.5,-157.000000000085,165.000000000026));
#391=CARTESIAN_POINT('',(-88.,-157.000000000085,240.));
#392=CARTESIAN_POINT('Origin',(-75.5,-157.000000000085,240.));
#393=CARTESIAN_POINT('Origin',(-75.5,-157.000000000085,240.));
#394=CARTESIAN_POINT('Origin',(-75.5,153.550277959535,240.));
#395=CARTESIAN_POINT('',(-88.,153.550277959535,240.));
#396=UNCERTAINTY_MEASURE_WITH_UNIT(LENGTH_MEASURE(0.01),#400,
'DISTANCE_ACCURACY_VALUE',
'Maximum model space distance between geometric entities at asserted c
onnectivities');
#397=UNCERTAINTY_MEASURE_WITH_UNIT(LENGTH_MEASURE(0.01),#400,
'DISTANCE_ACCURACY_VALUE',
'Maximum model space distance between geometric entities at asserted c
onnectivities');
#398=(
GEOMETRIC_REPRESENTATION_CONTEXT(3)
GLOBAL_UNCERTAINTY_ASSIGNED_CONTEXT((#396))
GLOBAL_UNIT_ASSIGNED_CONTEXT((#400,#402,#403))
REPRESENTATION_CONTEXT('','3D')
);
#399=(
GEOMETRIC_REPRESENTATION_CONTEXT(3)
GLOBAL_UNCERTAINTY_ASSIGNED_CONTEXT((#397))
GLOBAL_UNIT_ASSIGNED_CONTEXT((#400,#402,#403))
REPRESENTATION_CONTEXT('','3D')
);
#400=(
LENGTH_UNIT()
NAMED_UNIT(*)
SI_UNIT(.MILLI.,.METRE.)
);
#401=(
LENGTH_UNIT()
NAMED_UNIT(*)
SI_UNIT($,.METRE.)
);
#402=(
NAMED_UNIT(*)
PLANE_ANGLE_UNIT()
SI_UNIT($,.RADIAN.)
);
#403=(
NAMED_UNIT(*)
SI_UNIT($,.STERADIAN.)
SOLID_ANGLE_UNIT()
);
#404=SHAPE_DEFINITION_REPRESENTATION(#405,#406);
#405=PRODUCT_DEFINITION_SHAPE('',$,#408);
#406=SHAPE_REPRESENTATION('',(#221),#398);
#407=PRODUCT_DEFINITION_CONTEXT('part definition',#412,'design');
#408=PRODUCT_DEFINITION('Upper tube','Upper tube',#409,#407);
#409=PRODUCT_DEFINITION_FORMATION('',$,#414);
#410=PRODUCT_RELATED_PRODUCT_CATEGORY('Upper tube','Upper tube',(#414));
#411=APPLICATION_PROTOCOL_DEFINITION('international standard',
'automotive_design',2009,#412);
#412=APPLICATION_CONTEXT(
'Core Data for Automotive Mechanical Design Process');
#413=PRODUCT_CONTEXT('part definition',#412,'mechanical');
#414=PRODUCT('Upper tube','Upper tube',$,(#413));
#415=PRESENTATION_STYLE_ASSIGNMENT((#416));
#416=SURFACE_STYLE_USAGE(.BOTH.,#417);
#417=SURFACE_SIDE_STYLE('',(#418));
#418=SURFACE_STYLE_FILL_AREA(#419);
#419=FILL_AREA_STYLE('Aluminum - Satin',(#420));
#420=FILL_AREA_STYLE_COLOUR('Aluminum - Satin',#421);
#421=COLOUR_RGB('Aluminum - Satin',0.96078431372549,0.96078431372549,0.964705882352941);
ENDSEC;
END-ISO-10303-21;
