ISO-10303-21;
HEADER;
/* Generated by software containing ST-Developer
 * from STEP Tools, Inc. (www.steptools.com) 
 */
/* OPTION: using custom schema-name function */

FILE_DESCRIPTION(
/* description */ (''),
/* implementation_level */ '2;1');

FILE_NAME(
/* name */ 'FS34863.stp',
/* time_stamp */ '2023-03-27T14:27:53+02:00',
/* author */ (''),
/* organization */ (''),
/* preprocessor_version */ 'ST-DEVELOPER v18.102',
/* originating_system */ 'SIEMENS PLM Software NX2206.8101',
/* authorisation */ '');

FILE_SCHEMA (('AUTOMOTIVE_DESIGN { 1 0 10303 214 3 1 1 1 }'));
ENDSEC;

DATA;
#10=CONSTRUCTIVE_GEOMETRY_REPRESENTATION_RELATIONSHIP(
'supplemental geometry','',#24,#11);
#11=CONSTRUCTIVE_GEOMETRY_REPRESENTATION('supplemental geometry',(#199),
#305);
#12=SHAPE_REPRESENTATION_RELATIONSHIP('None',
'relationship between FS34863-None and FS34863-None',#24,#13);
#13=ADVANCED_BREP_SHAPE_REPRESENTATION('FS34863-None',(#30),#305);
#14=SHAPE_DEFINITION_REPRESENTATION(#15,#24);
#15=PRODUCT_DEFINITION_SHAPE('','',#16);
#16=PRODUCT_DEFINITION(' ','',#18,#17);
#17=PRODUCT_DEFINITION_CONTEXT('part definition',#23,'design');
#18=PRODUCT_DEFINITION_FORMATION_WITH_SPECIFIED_SOURCE(' ',' ',#20,
 .NOT_KNOWN.);
#19=PRODUCT_RELATED_PRODUCT_CATEGORY('part','',(#20));
#20=PRODUCT('FS34863','FS34863',' ',(#21));
#21=PRODUCT_CONTEXT(' ',#23,'mechanical');
#22=APPLICATION_PROTOCOL_DEFINITION('international standard',
'automotive_design',2010,#23);
#23=APPLICATION_CONTEXT(
'core data for automotive mechanical design processes');
#24=SHAPE_REPRESENTATION('FS34863-None',(#198),#305);
#25=SURFACE_STYLE_USAGE(.BOTH.,#26);
#26=SURFACE_SIDE_STYLE('',(#27));
#27=SURFACE_STYLE_FILL_AREA(#28);
#28=FILL_AREA_STYLE('',(#29));
#29=FILL_AREA_STYLE_COLOUR('',#196);
#30=MANIFOLD_SOLID_BREP('',#31);
#31=CLOSED_SHELL('',(#85,#86,#87,#88,#89,#90,#91,#92,#93,#94));
#32=LINE('',#266,#50);
#33=LINE('',#269,#51);
#34=LINE('',#271,#52);
#35=LINE('',#273,#53);
#36=LINE('',#275,#54);
#37=LINE('',#277,#55);
#38=LINE('',#279,#56);
#39=LINE('',#281,#57);
#40=LINE('',#283,#58);
#41=LINE('',#285,#59);
#42=LINE('',#287,#60);
#43=LINE('',#289,#61);
#44=LINE('',#291,#62);
#45=LINE('',#293,#63);
#46=LINE('',#295,#64);
#47=LINE('',#297,#65);
#48=LINE('',#299,#66);
#49=LINE('',#301,#67);
#50=VECTOR('',#224,1.);
#51=VECTOR('',#225,1.);
#52=VECTOR('',#226,1.);
#53=VECTOR('',#227,1.);
#54=VECTOR('',#228,1.);
#55=VECTOR('',#229,1.);
#56=VECTOR('',#232,1.);
#57=VECTOR('',#233,1.);
#58=VECTOR('',#234,1.);
#59=VECTOR('',#237,1.);
#60=VECTOR('',#238,1.);
#61=VECTOR('',#241,1.);
#62=VECTOR('',#242,1.);
#63=VECTOR('',#245,1.);
#64=VECTOR('',#246,1.);
#65=VECTOR('',#249,1.);
#66=VECTOR('',#250,1.);
#67=VECTOR('',#253,1.);
#68=PLANE('',#203);
#69=PLANE('',#204);
#70=PLANE('',#205);
#71=PLANE('',#206);
#72=PLANE('',#207);
#73=PLANE('',#208);
#74=PLANE('',#209);
#75=PLANE('',#210);
#76=PLANE('',#211);
#77=FACE_OUTER_BOUND('',#102,.T.);
#78=FACE_OUTER_BOUND('',#105,.T.);
#79=FACE_OUTER_BOUND('',#106,.T.);
#80=FACE_OUTER_BOUND('',#107,.T.);
#81=FACE_OUTER_BOUND('',#108,.T.);
#82=FACE_OUTER_BOUND('',#109,.T.);
#83=FACE_OUTER_BOUND('',#110,.T.);
#84=FACE_OUTER_BOUND('',#111,.T.);
#85=ADVANCED_FACE('',(#96,#97),#95,.T.);
#86=ADVANCED_FACE('',(#77),#68,.T.);
#87=ADVANCED_FACE('',(#98,#99),#69,.F.);
#88=ADVANCED_FACE('',(#78),#70,.F.);
#89=ADVANCED_FACE('',(#79),#71,.F.);
#90=ADVANCED_FACE('',(#80),#72,.F.);
#91=ADVANCED_FACE('',(#81),#73,.F.);
#92=ADVANCED_FACE('',(#82),#74,.F.);
#93=ADVANCED_FACE('',(#83),#75,.F.);
#94=ADVANCED_FACE('',(#84),#76,.T.);
#95=CYLINDRICAL_SURFACE('',#202,24.);
#96=FACE_BOUND('',#100,.T.);
#97=FACE_BOUND('',#101,.T.);
#98=FACE_BOUND('',#103,.T.);
#99=FACE_BOUND('',#104,.T.);
#100=EDGE_LOOP('',(#112));
#101=EDGE_LOOP('',(#113));
#102=EDGE_LOOP('',(#114));
#103=EDGE_LOOP('',(#115,#116,#117,#118,#119,#120));
#104=EDGE_LOOP('',(#121));
#105=EDGE_LOOP('',(#122,#123,#124,#125));
#106=EDGE_LOOP('',(#126,#127,#128,#129));
#107=EDGE_LOOP('',(#130,#131,#132,#133));
#108=EDGE_LOOP('',(#134,#135,#136,#137));
#109=EDGE_LOOP('',(#138,#139,#140,#141));
#110=EDGE_LOOP('',(#142,#143,#144,#145));
#111=EDGE_LOOP('',(#146,#147,#148,#149,#150,#151));
#112=ORIENTED_EDGE('',*,*,#166,.F.);
#113=ORIENTED_EDGE('',*,*,#167,.T.);
#114=ORIENTED_EDGE('',*,*,#166,.T.);
#115=ORIENTED_EDGE('',*,*,#168,.F.);
#116=ORIENTED_EDGE('',*,*,#169,.F.);
#117=ORIENTED_EDGE('',*,*,#170,.F.);
#118=ORIENTED_EDGE('',*,*,#171,.F.);
#119=ORIENTED_EDGE('',*,*,#172,.F.);
#120=ORIENTED_EDGE('',*,*,#173,.F.);
#121=ORIENTED_EDGE('',*,*,#167,.F.);
#122=ORIENTED_EDGE('',*,*,#169,.T.);
#123=ORIENTED_EDGE('',*,*,#174,.T.);
#124=ORIENTED_EDGE('',*,*,#175,.T.);
#125=ORIENTED_EDGE('',*,*,#176,.F.);
#126=ORIENTED_EDGE('',*,*,#168,.T.);
#127=ORIENTED_EDGE('',*,*,#177,.T.);
#128=ORIENTED_EDGE('',*,*,#178,.T.);
#129=ORIENTED_EDGE('',*,*,#174,.F.);
#130=ORIENTED_EDGE('',*,*,#173,.T.);
#131=ORIENTED_EDGE('',*,*,#179,.T.);
#132=ORIENTED_EDGE('',*,*,#180,.T.);
#133=ORIENTED_EDGE('',*,*,#177,.F.);
#134=ORIENTED_EDGE('',*,*,#172,.T.);
#135=ORIENTED_EDGE('',*,*,#181,.T.);
#136=ORIENTED_EDGE('',*,*,#182,.T.);
#137=ORIENTED_EDGE('',*,*,#179,.F.);
#138=ORIENTED_EDGE('',*,*,#171,.T.);
#139=ORIENTED_EDGE('',*,*,#183,.T.);
#140=ORIENTED_EDGE('',*,*,#184,.T.);
#141=ORIENTED_EDGE('',*,*,#181,.F.);
#142=ORIENTED_EDGE('',*,*,#170,.T.);
#143=ORIENTED_EDGE('',*,*,#176,.T.);
#144=ORIENTED_EDGE('',*,*,#185,.T.);
#145=ORIENTED_EDGE('',*,*,#183,.F.);
#146=ORIENTED_EDGE('',*,*,#175,.F.);
#147=ORIENTED_EDGE('',*,*,#178,.F.);
#148=ORIENTED_EDGE('',*,*,#180,.F.);
#149=ORIENTED_EDGE('',*,*,#182,.F.);
#150=ORIENTED_EDGE('',*,*,#184,.F.);
#151=ORIENTED_EDGE('',*,*,#185,.F.);
#152=VERTEX_POINT('',#261);
#153=VERTEX_POINT('',#263);
#154=VERTEX_POINT('',#267);
#155=VERTEX_POINT('',#268);
#156=VERTEX_POINT('',#270);
#157=VERTEX_POINT('',#272);
#158=VERTEX_POINT('',#274);
#159=VERTEX_POINT('',#276);
#160=VERTEX_POINT('',#280);
#161=VERTEX_POINT('',#282);
#162=VERTEX_POINT('',#286);
#163=VERTEX_POINT('',#290);
#164=VERTEX_POINT('',#294);
#165=VERTEX_POINT('',#298);
#166=EDGE_CURVE('',#152,#152,#186,.T.);
#167=EDGE_CURVE('',#153,#153,#187,.T.);
#168=EDGE_CURVE('',#154,#155,#32,.T.);
#169=EDGE_CURVE('',#156,#154,#33,.T.);
#170=EDGE_CURVE('',#157,#156,#34,.T.);
#171=EDGE_CURVE('',#158,#157,#35,.T.);
#172=EDGE_CURVE('',#159,#158,#36,.T.);
#173=EDGE_CURVE('',#155,#159,#37,.T.);
#174=EDGE_CURVE('',#154,#160,#38,.T.);
#175=EDGE_CURVE('',#160,#161,#39,.T.);
#176=EDGE_CURVE('',#156,#161,#40,.T.);
#177=EDGE_CURVE('',#155,#162,#41,.T.);
#178=EDGE_CURVE('',#162,#160,#42,.T.);
#179=EDGE_CURVE('',#159,#163,#43,.T.);
#180=EDGE_CURVE('',#163,#162,#44,.T.);
#181=EDGE_CURVE('',#158,#164,#45,.T.);
#182=EDGE_CURVE('',#164,#163,#46,.T.);
#183=EDGE_CURVE('',#157,#165,#47,.T.);
#184=EDGE_CURVE('',#165,#164,#48,.T.);
#185=EDGE_CURVE('',#161,#165,#49,.T.);
#186=CIRCLE('',#200,24.);
#187=CIRCLE('',#201,24.);
#188=PRESENTATION_LAYER_ASSIGNMENT('51','Layer 51',(#199));
#189=PRESENTATION_LAYER_ASSIGNMENT('1','Layer 1',(#30));
#190=STYLED_ITEM('',(#192),#199);
#191=STYLED_ITEM('',(#193),#30);
#192=PRESENTATION_STYLE_ASSIGNMENT((#194));
#193=PRESENTATION_STYLE_ASSIGNMENT((#25));
#194=CURVE_STYLE('',#197,POSITIVE_LENGTH_MEASURE(0.5),#195);
#195=COLOUR_RGB('Light Weak Red',0.8,0.6,0.6);
#196=COLOUR_RGB('light gray',0.6,0.6,0.6);
#197=DRAUGHTING_PRE_DEFINED_CURVE_FONT('continuous');
#198=AXIS2_PLACEMENT_3D('',#258,#212,#213);
#199=AXIS2_PLACEMENT_3D('XYZ-ABS',#259,#214,#215);
#200=AXIS2_PLACEMENT_3D('',#260,#216,#217);
#201=AXIS2_PLACEMENT_3D('',#262,#218,#219);
#202=AXIS2_PLACEMENT_3D('',#264,#220,#221);
#203=AXIS2_PLACEMENT_3D('',#265,#222,#223);
#204=AXIS2_PLACEMENT_3D('',#278,#230,#231);
#205=AXIS2_PLACEMENT_3D('',#284,#235,#236);
#206=AXIS2_PLACEMENT_3D('',#288,#239,#240);
#207=AXIS2_PLACEMENT_3D('',#292,#243,#244);
#208=AXIS2_PLACEMENT_3D('',#296,#247,#248);
#209=AXIS2_PLACEMENT_3D('',#300,#251,#252);
#210=AXIS2_PLACEMENT_3D('',#302,#254,#255);
#211=AXIS2_PLACEMENT_3D('',#303,#256,#257);
#212=DIRECTION('',(0.,0.,1.));
#213=DIRECTION('',(1.,0.,0.));
#214=DIRECTION('',(0.,0.,1.));
#215=DIRECTION('',(1.,0.,0.));
#216=DIRECTION('',(0.,0.,1.));
#217=DIRECTION('',(1.,0.,0.));
#218=DIRECTION('',(0.,0.,1.));
#219=DIRECTION('',(1.,0.,0.));
#220=DIRECTION('',(0.,0.,-1.));
#221=DIRECTION('',(-1.,0.,0.));
#222=DIRECTION('',(0.,0.,1.));
#223=DIRECTION('',(1.,0.,0.));
#224=DIRECTION('',(0.866025403784438,0.500000000000001,0.));
#225=DIRECTION('',(1.50231459873716E-15,1.,0.));
#226=DIRECTION('',(-0.866025403784439,0.499999999999999,0.));
#227=DIRECTION('',(-0.866025403784438,-0.500000000000001,0.));
#228=DIRECTION('',(0.,-1.,0.));
#229=DIRECTION('',(0.866025403784439,-0.5,0.));
#230=DIRECTION('',(0.,0.,1.));
#231=DIRECTION('',(1.,0.,0.));
#232=DIRECTION('',(0.,0.,1.));
#233=DIRECTION('',(-1.50231459873716E-15,-1.,0.));
#234=DIRECTION('',(0.,0.,1.));
#235=DIRECTION('',(-1.,1.50231459873716E-15,0.));
#236=DIRECTION('',(-1.50227053019591E-15,-1.,0.));
#237=DIRECTION('',(0.,0.,1.));
#238=DIRECTION('',(-0.866025403784438,-0.500000000000001,0.));
#239=DIRECTION('',(-0.500000000000001,0.866025403784438,0.));
#240=DIRECTION('',(-0.866025403784438,-0.500000000000001,0.));
#241=DIRECTION('',(0.,0.,1.));
#242=DIRECTION('',(-0.866025403784439,0.5,0.));
#243=DIRECTION('',(0.5,0.866025403784439,0.));
#244=DIRECTION('',(-0.866025403784439,0.5,0.));
#245=DIRECTION('',(0.,0.,1.));
#246=DIRECTION('',(0.,1.,0.));
#247=DIRECTION('',(1.,0.,0.));
#248=DIRECTION('',(0.,0.,-1.));
#249=DIRECTION('',(0.,0.,1.));
#250=DIRECTION('',(0.866025403784438,0.500000000000001,0.));
#251=DIRECTION('',(0.500000000000001,-0.866025403784438,0.));
#252=DIRECTION('',(0.866025403784438,0.500000000000001,0.));
#253=DIRECTION('',(0.866025403784439,-0.499999999999999,0.));
#254=DIRECTION('',(-0.499999999999999,-0.866025403784439,0.));
#255=DIRECTION('',(0.866025403784439,-0.499999999999999,0.));
#256=DIRECTION('',(0.,0.,-1.));
#257=DIRECTION('',(-1.,0.,0.));
#258=CARTESIAN_POINT('',(0.,0.,0.));
#259=CARTESIAN_POINT('',(0.,0.,0.));
#260=CARTESIAN_POINT('',(0.,0.,20.));
#261=CARTESIAN_POINT('',(24.,0.,20.));
#262=CARTESIAN_POINT('',(0.,0.,0.));
#263=CARTESIAN_POINT('',(24.,0.,0.));
#264=CARTESIAN_POINT('',(0.,0.,20.));
#265=CARTESIAN_POINT('',(0.,0.,20.));
#266=CARTESIAN_POINT('',(-3.99999999999999,2.3094010767585,0.));
#267=CARTESIAN_POINT('',(-3.99999999999999,2.3094010767585,0.));
#268=CARTESIAN_POINT('',(-6.93889390390723E-15,4.61880215351701,0.));
#269=CARTESIAN_POINT('',(-4.,-2.3094010767585,0.));
#270=CARTESIAN_POINT('',(-4.,-2.3094010767585,0.));
#271=CARTESIAN_POINT('',(7.105427357601E-15,-4.61880215351701,0.));
#272=CARTESIAN_POINT('',(6.93889390390723E-15,-4.61880215351701,0.));
#273=CARTESIAN_POINT('',(4.,-2.3094010767585,0.));
#274=CARTESIAN_POINT('',(4.,-2.3094010767585,0.));
#275=CARTESIAN_POINT('',(4.,2.3094010767585,0.));
#276=CARTESIAN_POINT('',(4.,2.3094010767585,0.));
#277=CARTESIAN_POINT('',(-7.105427357601E-15,4.618802153517,0.));
#278=CARTESIAN_POINT('',(0.,0.,0.));
#279=CARTESIAN_POINT('',(-3.99999999999999,2.3094010767585,6.));
#280=CARTESIAN_POINT('',(-3.99999999999999,2.3094010767585,6.));
#281=CARTESIAN_POINT('',(-4.,-2.3094010767585,6.));
#282=CARTESIAN_POINT('',(-4.,-2.3094010767585,6.));
#283=CARTESIAN_POINT('',(-4.,-2.3094010767585,6.));
#284=CARTESIAN_POINT('',(-4.,-2.3094010767585,6.));
#285=CARTESIAN_POINT('',(-6.93889390390723E-15,4.61880215351701,6.));
#286=CARTESIAN_POINT('',(-6.93889390390723E-15,4.61880215351701,6.));
#287=CARTESIAN_POINT('',(-3.99999999999999,2.3094010767585,6.));
#288=CARTESIAN_POINT('',(-3.99999999999999,2.3094010767585,6.));
#289=CARTESIAN_POINT('',(4.,2.3094010767585,6.));
#290=CARTESIAN_POINT('',(4.,2.3094010767585,6.));
#291=CARTESIAN_POINT('',(-7.105427357601E-15,4.618802153517,6.));
#292=CARTESIAN_POINT('',(-7.105427357601E-15,4.618802153517,6.));
#293=CARTESIAN_POINT('',(4.,-2.3094010767585,6.));
#294=CARTESIAN_POINT('',(4.,-2.3094010767585,6.));
#295=CARTESIAN_POINT('',(4.,2.3094010767585,6.));
#296=CARTESIAN_POINT('',(4.,2.3094010767585,6.));
#297=CARTESIAN_POINT('',(6.93889390390723E-15,-4.61880215351701,6.));
#298=CARTESIAN_POINT('',(6.93889390390723E-15,-4.61880215351701,6.));
#299=CARTESIAN_POINT('',(4.,-2.3094010767585,6.));
#300=CARTESIAN_POINT('',(4.,-2.3094010767585,6.));
#301=CARTESIAN_POINT('',(7.105427357601E-15,-4.61880215351701,6.));
#302=CARTESIAN_POINT('',(7.105427357601E-15,-4.61880215351701,6.));
#303=CARTESIAN_POINT('',(0.,0.,6.));
#304=MECHANICAL_DESIGN_GEOMETRIC_PRESENTATION_REPRESENTATION('',(#190,#191),
#305);
#305=(
GEOMETRIC_REPRESENTATION_CONTEXT(3)
GLOBAL_UNCERTAINTY_ASSIGNED_CONTEXT((#306))
GLOBAL_UNIT_ASSIGNED_CONTEXT((#312,#308,#307))
REPRESENTATION_CONTEXT('FS34863','TOP_LEVEL_ASSEMBLY_PART')
);
#306=UNCERTAINTY_MEASURE_WITH_UNIT(LENGTH_MEASURE(2.E-5),#312,
'DISTANCE_ACCURACY_VALUE','Maximum Tolerance applied to model');
#307=(
NAMED_UNIT(*)
SI_UNIT($,.STERADIAN.)
SOLID_ANGLE_UNIT()
);
#308=(
CONVERSION_BASED_UNIT('DEGREE',#310)
NAMED_UNIT(#309)
PLANE_ANGLE_UNIT()
);
#309=DIMENSIONAL_EXPONENTS(0.,0.,0.,0.,0.,0.,0.);
#310=PLANE_ANGLE_MEASURE_WITH_UNIT(PLANE_ANGLE_MEASURE(0.0174532925),#311);
#311=(
NAMED_UNIT(*)
PLANE_ANGLE_UNIT()
SI_UNIT($,.RADIAN.)
);
#312=(
LENGTH_UNIT()
NAMED_UNIT(*)
SI_UNIT(.MILLI.,.METRE.)
);
ENDSEC;
END-ISO-10303-21;
