ISO-10303-21;
HEADER;
FILE_DESCRIPTION(('STEP AP203'),'1');
FILE_NAME('FIXATION GUIDE .stp','2023-03-07T09:58:59',(' '),(' '),'Spatial InterOp 3D',' ',' ');
FILE_SCHEMA(('CONFIG_CONTROL_DESIGN'));
ENDSEC;
DATA;
#1=DESIGN_CONTEXT('',#33,'design');
#2=APPLICATION_PROTOCOL_DEFINITION('INTERNATIONAL STANDARD','config_control_design',1994,#33);
#3=PRODUCT_CATEGORY_RELATIONSHIP('NONE','NONE',#34,#35);
#4=DATE_AND_TIME(#36,#37);
#5=DATE_TIME_ROLE('creation_date');
#6=DATE_TIME_ROLE('classification_date');
#7=PERSON_AND_ORGANIZATION_ROLE('creator');
#8=PERSON_AND_ORGANIZATION_ROLE('design_supplier');
#9=PERSON_AND_ORGANIZATION_ROLE('classification_officer');
#10=PERSON_AND_ORGANIZATION_ROLE('design_owner');
#11=APPROVAL_PERSON_ORGANIZATION(#38,#39,#40);
#12=APPROVAL_DATE_TIME(#4,#39);
#13=CC_DESIGN_APPROVAL(#39,(#41,#42,#43));
#14=CC_DESIGN_DATE_AND_TIME_ASSIGNMENT(#4,#5,(#43));
#15=CC_DESIGN_DATE_AND_TIME_ASSIGNMENT(#4,#6,(#41));
#16=CC_DESIGN_PERSON_AND_ORGANIZATION_ASSIGNMENT(#38,#10,(#44));
#17=CC_DESIGN_PERSON_AND_ORGANIZATION_ASSIGNMENT(#38,#7,(#43));
#18=CC_DESIGN_PERSON_AND_ORGANIZATION_ASSIGNMENT(#38,#7,(#42));
#19=CC_DESIGN_PERSON_AND_ORGANIZATION_ASSIGNMENT(#38,#8,(#42));
#20=CC_DESIGN_SECURITY_CLASSIFICATION(#41,(#42));
#21=CC_DESIGN_PERSON_AND_ORGANIZATION_ASSIGNMENT(#38,#9,(#41));
#22=SHAPE_DEFINITION_REPRESENTATION(#45,#46);
#23= (GEOMETRIC_REPRESENTATION_CONTEXT(3)GLOBAL_UNCERTAINTY_ASSIGNED_CONTEXT((#49))GLOBAL_UNIT_ASSIGNED_CONTEXT((#51,#52,#53))REPRESENTATION_CONTEXT('NONE','WORKSPACE'));
#24=PROPERTY_DEFINITION_REPRESENTATION(#55,#56);
#25=GENERAL_PROPERTY_ASSOCIATION('','',#57,#55);
#26=PROPERTY_DEFINITION_REPRESENTATION(#58,#59);
#27=GENERAL_PROPERTY_ASSOCIATION('','',#60,#58);
#28=PROPERTY_DEFINITION_REPRESENTATION(#61,#62);
#29=GENERAL_PROPERTY_ASSOCIATION('','',#63,#61);
#33=APPLICATION_CONTEXT('CONFIGURATION CONTROLLED 3D DESIGNS OF MECHANICAL PARTS AND ASSEMBLIES');
#34=PRODUCT_CATEGORY('part','NONE');
#35=PRODUCT_RELATED_PRODUCT_CATEGORY('detail',' ',(#44));
#36=CALENDAR_DATE(2023,7,2);
#37=LOCAL_TIME(10,58,59.0,#64);
#38=PERSON_AND_ORGANIZATION(#65,#66);
#39=APPROVAL(#67,'SOLID MODEL');
#40=APPROVAL_ROLE('APPROVED');
#41=SECURITY_CLASSIFICATION('','',#68);
#42=PRODUCT_DEFINITION_FORMATION_WITH_SPECIFIED_SOURCE('A','NONE',#44,.NOT_KNOWN.);
#43=PRODUCT_DEFINITION('','NONE',#42,#1);
#44=PRODUCT('FIXATION GUIDE ','','PART--DESC',(#69));
#45=PRODUCT_DEFINITION_SHAPE('NONE','NONE',#43);
#46=ADVANCED_BREP_SHAPE_REPRESENTATION('1',(#70,#71),#23);
#49=UNCERTAINTY_MEASURE_WITH_UNIT(LENGTH_MEASURE(0.001),#51,'','');
#51= (CONVERSION_BASED_UNIT('MILLIMETRE',#74)LENGTH_UNIT()NAMED_UNIT(#77));
#52= (NAMED_UNIT(#79)PLANE_ANGLE_UNIT()SI_UNIT($,.RADIAN.));
#53= (NAMED_UNIT(#79)SOLID_ANGLE_UNIT()SI_UNIT($,.STERADIAN.));
#55=PROPERTY_DEFINITION('PdmObjectId','',#43);
#56=REPRESENTATION('',(#85),#23);
#57=GENERAL_PROPERTY('','19_bb72a926-9d44-479d-9ef4-e345086734fc&3_4142_0_3','');
#58=PROPERTY_DEFINITION('CreationDate','',#43);
#59=REPRESENTATION('',(#86),#23);
#60=GENERAL_PROPERTY('','07/03/2023 09:15:34','');
#61=PROPERTY_DEFINITION('Minor Revision','',#43);
#62=REPRESENTATION('',(#87),#23);
#63=GENERAL_PROPERTY('','0','');
#64=COORDINATED_UNIVERSAL_TIME_OFFSET(1,0,.AHEAD.);
#65=PERSON('','UNSPECIFIED',$,$,$,$);
#66=ORGANIZATION('UNSPECIFIED','UNSPECIFIED','UNSPECIFIED');
#67=APPROVAL_STATUS('approved');
#68=SECURITY_CLASSIFICATION_LEVEL('unclassified');
#69=MECHANICAL_CONTEXT('',#33,'mechanical');
#70=MANIFOLD_SOLID_BREP('1',#88);
#71=AXIS2_PLACEMENT_3D('',#89,#90,#91);
#74=LENGTH_MEASURE_WITH_UNIT(LENGTH_MEASURE(1.0),#92);
#77=DIMENSIONAL_EXPONENTS(1.0,0.0,0.0,0.0,0.0,0.0,0.0);
#79=DIMENSIONAL_EXPONENTS(0.0,0.0,0.0,0.0,0.0,0.0,0.0);
#85=DESCRIPTIVE_REPRESENTATION_ITEM('','19_bb72a926-9d44-479d-9ef4-e345086734fc&3_4142_0_3');
#86=DESCRIPTIVE_REPRESENTATION_ITEM('','07/03/2023 09:15:34');
#87=DESCRIPTIVE_REPRESENTATION_ITEM('','0');
#88=CLOSED_SHELL('',(#93,#94,#95,#96,#97,#98,#99,#100,#101,#102,#103,#104,#105,#106,#107,#108,#109,#110,#111));
#89=CARTESIAN_POINT('',(0.0,0.0,0.0));
#90=DIRECTION('',(0.0,0.0,1.0));
#91=DIRECTION('',(1.0,0.0,0.0));
#92= (NAMED_UNIT(#77)LENGTH_UNIT()SI_UNIT(.MILLI.,.METRE.));
#93=ADVANCED_FACE('',(#113,#114,#115),#116,.T.);
#94=ADVANCED_FACE('',(#117,#118),#119,.F.);
#95=ADVANCED_FACE('',(#120),#121,.T.);
#96=ADVANCED_FACE('',(#122),#123,.F.);
#97=ADVANCED_FACE('',(#124),#125,.T.);
#98=ADVANCED_FACE('',(#126,#127),#128,.T.);
#99=ADVANCED_FACE('',(#129),#130,.T.);
#100=ADVANCED_FACE('',(#131,#132,#133,#134,#135,#136),#137,.T.);
#101=ADVANCED_FACE('',(#138),#139,.T.);
#102=ADVANCED_FACE('',(#140,#141),#142,.T.);
#103=ADVANCED_FACE('',(#143,#144,#145),#146,.T.);
#104=ADVANCED_FACE('',(#147,#148),#149,.T.);
#105=ADVANCED_FACE('',(#150),#151,.F.);
#106=ADVANCED_FACE('',(#152,#153),#154,.F.);
#107=ADVANCED_FACE('',(#155,#156),#157,.F.);
#108=ADVANCED_FACE('',(#158,#159),#160,.F.);
#109=ADVANCED_FACE('',(#161,#162),#163,.F.);
#110=ADVANCED_FACE('',(#164,#165),#166,.F.);
#111=ADVANCED_FACE('',(#167),#168,.T.);
#113=FACE_BOUND('',#169,.T.);
#114=FACE_BOUND('',#170,.T.);
#115=FACE_OUTER_BOUND('',#171,.T.);
#116=PLANE('',#172);
#117=FACE_OUTER_BOUND('',#173,.T.);
#118=FACE_OUTER_BOUND('',#174,.T.);
#119=CYLINDRICAL_SURFACE('',#175,2.5);
#120=FACE_OUTER_BOUND('',#176,.T.);
#121=PLANE('',#177);
#122=FACE_OUTER_BOUND('',#178,.T.);
#123=CYLINDRICAL_SURFACE('',#179,15.0);
#124=FACE_OUTER_BOUND('',#180,.T.);
#125=PLANE('',#181);
#126=FACE_BOUND('',#182,.T.);
#127=FACE_OUTER_BOUND('',#183,.T.);
#128=PLANE('',#184);
#129=FACE_OUTER_BOUND('',#185,.T.);
#130=PLANE('',#186);
#131=FACE_BOUND('',#187,.T.);
#132=FACE_BOUND('',#188,.T.);
#133=FACE_BOUND('',#189,.T.);
#134=FACE_BOUND('',#190,.T.);
#135=FACE_BOUND('',#191,.T.);
#136=FACE_OUTER_BOUND('',#192,.T.);
#137=PLANE('',#193);
#138=FACE_OUTER_BOUND('',#194,.T.);
#139=PLANE('',#195);
#140=FACE_BOUND('',#196,.T.);
#141=FACE_OUTER_BOUND('',#197,.T.);
#142=PLANE('',#198);
#143=FACE_BOUND('',#199,.T.);
#144=FACE_BOUND('',#200,.T.);
#145=FACE_OUTER_BOUND('',#201,.T.);
#146=PLANE('',#202);
#147=FACE_BOUND('',#203,.T.);
#148=FACE_OUTER_BOUND('',#204,.T.);
#149=PLANE('',#205);
#150=FACE_OUTER_BOUND('',#206,.T.);
#151=PLANE('',#207);
#152=FACE_OUTER_BOUND('',#208,.T.);
#153=FACE_OUTER_BOUND('',#209,.T.);
#154=CYLINDRICAL_SURFACE('',#210,3.0);
#155=FACE_OUTER_BOUND('',#211,.T.);
#156=FACE_OUTER_BOUND('',#212,.T.);
#157=CYLINDRICAL_SURFACE('',#213,3.0);
#158=FACE_OUTER_BOUND('',#214,.T.);
#159=FACE_OUTER_BOUND('',#215,.T.);
#160=CYLINDRICAL_SURFACE('',#216,4.0);
#161=FACE_OUTER_BOUND('',#217,.T.);
#162=FACE_OUTER_BOUND('',#218,.T.);
#163=CYLINDRICAL_SURFACE('',#219,2.5);
#164=FACE_OUTER_BOUND('',#220,.T.);
#165=FACE_OUTER_BOUND('',#221,.T.);
#166=CYLINDRICAL_SURFACE('',#222,4.25);
#167=FACE_OUTER_BOUND('',#223,.T.);
#168=PLANE('',#224);
#169=EDGE_LOOP('',(#225));
#170=EDGE_LOOP('',(#226));
#171=EDGE_LOOP('',(#227,#228,#229,#230));
#172=AXIS2_PLACEMENT_3D('',#231,#232,#233);
#173=EDGE_LOOP('',(#234));
#174=EDGE_LOOP('',(#235));
#175=AXIS2_PLACEMENT_3D('',#236,#237,#238);
#176=EDGE_LOOP('',(#239,#240,#241,#242,#243,#244,#245,#246,#247));
#177=AXIS2_PLACEMENT_3D('',#248,#249,#250);
#178=EDGE_LOOP('',(#251,#252,#253,#254));
#179=AXIS2_PLACEMENT_3D('',#255,#256,#257);
#180=EDGE_LOOP('',(#258,#259,#260,#261));
#181=AXIS2_PLACEMENT_3D('',#262,#263,#264);
#182=EDGE_LOOP('',(#265));
#183=EDGE_LOOP('',(#266,#267,#268,#269));
#184=AXIS2_PLACEMENT_3D('',#270,#271,#272);
#185=EDGE_LOOP('',(#273,#274,#275,#276,#277,#278));
#186=AXIS2_PLACEMENT_3D('',#279,#280,#281);
#187=EDGE_LOOP('',(#282));
#188=EDGE_LOOP('',(#283));
#189=EDGE_LOOP('',(#284));
#190=EDGE_LOOP('',(#285));
#191=EDGE_LOOP('',(#286));
#192=EDGE_LOOP('',(#287,#288,#289,#290));
#193=AXIS2_PLACEMENT_3D('',#291,#292,#293);
#194=EDGE_LOOP('',(#294,#295,#296,#297,#298,#299));
#195=AXIS2_PLACEMENT_3D('',#300,#301,#302);
#196=EDGE_LOOP('',(#303));
#197=EDGE_LOOP('',(#304,#305,#306,#307));
#198=AXIS2_PLACEMENT_3D('',#308,#309,#310);
#199=EDGE_LOOP('',(#311));
#200=EDGE_LOOP('',(#312));
#201=EDGE_LOOP('',(#313,#314,#315,#316));
#202=AXIS2_PLACEMENT_3D('',#317,#318,#319);
#203=EDGE_LOOP('',(#320));
#204=EDGE_LOOP('',(#321,#322,#323,#324));
#205=AXIS2_PLACEMENT_3D('',#325,#326,#327);
#206=EDGE_LOOP('',(#328,#329,#330,#331));
#207=AXIS2_PLACEMENT_3D('',#332,#333,#334);
#208=EDGE_LOOP('',(#335));
#209=EDGE_LOOP('',(#336));
#210=AXIS2_PLACEMENT_3D('',#337,#338,#339);
#211=EDGE_LOOP('',(#340));
#212=EDGE_LOOP('',(#341));
#213=AXIS2_PLACEMENT_3D('',#342,#343,#344);
#214=EDGE_LOOP('',(#345));
#215=EDGE_LOOP('',(#346));
#216=AXIS2_PLACEMENT_3D('',#347,#348,#349);
#217=EDGE_LOOP('',(#350));
#218=EDGE_LOOP('',(#351));
#219=AXIS2_PLACEMENT_3D('',#352,#353,#354);
#220=EDGE_LOOP('',(#355));
#221=EDGE_LOOP('',(#356));
#222=AXIS2_PLACEMENT_3D('',#357,#358,#359);
#223=EDGE_LOOP('',(#360,#361,#362,#363,#364,#365,#366,#367,#368));
#224=AXIS2_PLACEMENT_3D('',#369,#370,#371);
#225=ORIENTED_EDGE('',*,*,#372,.F.);
#226=ORIENTED_EDGE('',*,*,#373,.F.);
#227=ORIENTED_EDGE('',*,*,#374,.T.);
#228=ORIENTED_EDGE('',*,*,#375,.T.);
#229=ORIENTED_EDGE('',*,*,#376,.T.);
#230=ORIENTED_EDGE('',*,*,#377,.T.);
#231=CARTESIAN_POINT('',(-6.77507095564467E-15,12.0,0.0));
#232=DIRECTION('',(-1.22460635382238E-16,1.0,0.0));
#233=DIRECTION('',(-1.0,-1.22460635382238E-16,0.0));
#234=ORIENTED_EDGE('',*,*,#378,.F.);
#235=ORIENTED_EDGE('',*,*,#373,.T.);
#236=CARTESIAN_POINT('',(15.0,12.0,6.0));
#237=DIRECTION('',(1.22460635382238E-16,-1.0,0.0));
#238=DIRECTION('',(-1.0,-1.22460635382238E-16,0.0));
#239=ORIENTED_EDGE('',*,*,#379,.T.);
#240=ORIENTED_EDGE('',*,*,#377,.F.);
#241=ORIENTED_EDGE('',*,*,#380,.F.);
#242=ORIENTED_EDGE('',*,*,#381,.F.);
#243=ORIENTED_EDGE('',*,*,#382,.F.);
#244=ORIENTED_EDGE('',*,*,#383,.F.);
#245=ORIENTED_EDGE('',*,*,#384,.F.);
#246=ORIENTED_EDGE('',*,*,#385,.T.);
#247=ORIENTED_EDGE('',*,*,#386,.F.);
#248=CARTESIAN_POINT('',(39.0000000303273,70.0,12.0));
#249=DIRECTION('',(-1.22460635382238E-16,-1.49966072182214E-32,-1.0));
#250=DIRECTION('',(1.0,1.22460635382238E-16,-1.22460635382238E-16));
#251=ORIENTED_EDGE('',*,*,#387,.F.);
#252=ORIENTED_EDGE('',*,*,#383,.T.);
#253=ORIENTED_EDGE('',*,*,#388,.T.);
#254=ORIENTED_EDGE('',*,*,#389,.F.);
#255=CARTESIAN_POINT('',(39.0,45.0,0.0));
#256=DIRECTION('',(0.0,0.0,1.0));
#257=DIRECTION('',(1.0,0.0,0.0));
#258=ORIENTED_EDGE('',*,*,#388,.F.);
#259=ORIENTED_EDGE('',*,*,#382,.T.);
#260=ORIENTED_EDGE('',*,*,#390,.T.);
#261=ORIENTED_EDGE('',*,*,#391,.F.);
#262=CARTESIAN_POINT('',(24.0,48.5,0.0));
#263=DIRECTION('',(1.0,6.12303176911189E-17,0.0));
#264=DIRECTION('',(-6.12303176911189E-17,1.0,0.0));
#265=ORIENTED_EDGE('',*,*,#392,.F.);
#266=ORIENTED_EDGE('',*,*,#390,.F.);
#267=ORIENTED_EDGE('',*,*,#381,.T.);
#268=ORIENTED_EDGE('',*,*,#393,.T.);
#269=ORIENTED_EDGE('',*,*,#394,.F.);
#270=CARTESIAN_POINT('',(12.0,52.0,0.0));
#271=DIRECTION('',(0.0,1.0,0.0));
#272=DIRECTION('',(-1.0,0.0,0.0));
#273=ORIENTED_EDGE('',*,*,#376,.F.);
#274=ORIENTED_EDGE('',*,*,#395,.T.);
#275=ORIENTED_EDGE('',*,*,#396,.T.);
#276=ORIENTED_EDGE('',*,*,#397,.F.);
#277=ORIENTED_EDGE('',*,*,#393,.F.);
#278=ORIENTED_EDGE('',*,*,#380,.T.);
#279=CARTESIAN_POINT('',(0.0,26.0,0.0));
#280=DIRECTION('',(-1.0,-6.12303176911189E-17,0.0));
#281=DIRECTION('',(6.12303176911189E-17,-1.0,0.0));
#282=ORIENTED_EDGE('',*,*,#398,.T.);
#283=ORIENTED_EDGE('',*,*,#399,.T.);
#284=ORIENTED_EDGE('',*,*,#400,.T.);
#285=ORIENTED_EDGE('',*,*,#401,.T.);
#286=ORIENTED_EDGE('',*,*,#378,.T.);
#287=ORIENTED_EDGE('',*,*,#402,.F.);
#288=ORIENTED_EDGE('',*,*,#396,.F.);
#289=ORIENTED_EDGE('',*,*,#403,.T.);
#290=ORIENTED_EDGE('',*,*,#404,.T.);
#291=CARTESIAN_POINT('',(39.0000000303273,0.0,0.0));
#292=DIRECTION('',(0.0,-1.0,0.0));
#293=DIRECTION('',(1.0,0.0,0.0));
#294=ORIENTED_EDGE('',*,*,#374,.F.);
#295=ORIENTED_EDGE('',*,*,#379,.F.);
#296=ORIENTED_EDGE('',*,*,#405,.T.);
#297=ORIENTED_EDGE('',*,*,#406,.F.);
#298=ORIENTED_EDGE('',*,*,#404,.F.);
#299=ORIENTED_EDGE('',*,*,#407,.T.);
#300=CARTESIAN_POINT('',(78.0000000606546,29.0,0.0));
#301=DIRECTION('',(1.0,-6.12303176911189E-17,0.0));
#302=DIRECTION('',(6.12303176911189E-17,1.0,0.0));
#303=ORIENTED_EDGE('',*,*,#408,.F.);
#304=ORIENTED_EDGE('',*,*,#405,.F.);
#305=ORIENTED_EDGE('',*,*,#386,.T.);
#306=ORIENTED_EDGE('',*,*,#409,.T.);
#307=ORIENTED_EDGE('',*,*,#410,.F.);
#308=CARTESIAN_POINT('',(74.5358984455169,64.0,0.0));
#309=DIRECTION('',(0.866025403784439,0.5,0.0));
#310=DIRECTION('',(-0.5,0.866025403784439,0.0));
#311=ORIENTED_EDGE('',*,*,#411,.F.);
#312=ORIENTED_EDGE('',*,*,#412,.F.);
#313=ORIENTED_EDGE('',*,*,#385,.F.);
#314=ORIENTED_EDGE('',*,*,#413,.T.);
#315=ORIENTED_EDGE('',*,*,#414,.F.);
#316=ORIENTED_EDGE('',*,*,#409,.F.);
#317=CARTESIAN_POINT('',(63.5350374585891,70.0,0.0));
#318=DIRECTION('',(-1.22460635382238E-16,1.0,0.0));
#319=DIRECTION('',(-1.0,-1.22460635382238E-16,0.0));
#320=ORIENTED_EDGE('',*,*,#415,.T.);
#321=ORIENTED_EDGE('',*,*,#413,.F.);
#322=ORIENTED_EDGE('',*,*,#384,.T.);
#323=ORIENTED_EDGE('',*,*,#387,.T.);
#324=ORIENTED_EDGE('',*,*,#416,.F.);
#325=CARTESIAN_POINT('',(54.9991390433996,57.5,0.0));
#326=DIRECTION('',(-0.99682073387662,0.079677001158909,0.0));
#327=DIRECTION('',(-0.079677001158909,-0.99682073387662,0.0));
#328=ORIENTED_EDGE('',*,*,#375,.F.);
#329=ORIENTED_EDGE('',*,*,#407,.F.);
#330=ORIENTED_EDGE('',*,*,#403,.F.);
#331=ORIENTED_EDGE('',*,*,#395,.F.);
#332=CARTESIAN_POINT('',(39.0,45.0,0.0));
#333=DIRECTION('',(0.0,0.0,1.0));
#334=DIRECTION('',(1.0,0.0,0.0));
#335=ORIENTED_EDGE('',*,*,#399,.F.);
#336=ORIENTED_EDGE('',*,*,#412,.T.);
#337=CARTESIAN_POINT('',(63.5382780867992,70.0,19.5));
#338=DIRECTION('',(1.22460635382238E-16,-1.0,0.0));
#339=DIRECTION('',(-1.0,-1.22460635382238E-16,0.0));
#340=ORIENTED_EDGE('',*,*,#398,.F.);
#341=ORIENTED_EDGE('',*,*,#411,.T.);
#342=CARTESIAN_POINT('',(63.5382780867992,70.0,70.5));
#343=DIRECTION('',(1.22460635382238E-16,-1.0,0.0));
#344=DIRECTION('',(-1.0,-1.22460635382238E-16,0.0));
#345=ORIENTED_EDGE('',*,*,#400,.F.);
#346=ORIENTED_EDGE('',*,*,#392,.T.);
#347=CARTESIAN_POINT('',(9.0,52.0,46.0));
#348=DIRECTION('',(0.0,-1.0,0.0));
#349=DIRECTION('',(-1.0,0.0,0.0));
#350=ORIENTED_EDGE('',*,*,#401,.F.);
#351=ORIENTED_EDGE('',*,*,#372,.T.);
#352=CARTESIAN_POINT('',(63.0,12.0,6.0));
#353=DIRECTION('',(1.22460635382238E-16,-1.0,0.0));
#354=DIRECTION('',(-1.0,-1.22460635382238E-16,0.0));
#355=ORIENTED_EDGE('',*,*,#415,.F.);
#356=ORIENTED_EDGE('',*,*,#408,.T.);
#357=CARTESIAN_POINT('',(74.5358984455169,64.0,45.0));
#358=DIRECTION('',(-0.866025403784439,-0.5,0.0));
#359=DIRECTION('',(-0.5,0.866025403784439,0.0));
#360=ORIENTED_EDGE('',*,*,#389,.T.);
#361=ORIENTED_EDGE('',*,*,#391,.T.);
#362=ORIENTED_EDGE('',*,*,#394,.T.);
#363=ORIENTED_EDGE('',*,*,#397,.T.);
#364=ORIENTED_EDGE('',*,*,#402,.T.);
#365=ORIENTED_EDGE('',*,*,#406,.T.);
#366=ORIENTED_EDGE('',*,*,#410,.T.);
#367=ORIENTED_EDGE('',*,*,#414,.T.);
#368=ORIENTED_EDGE('',*,*,#416,.T.);
#369=CARTESIAN_POINT('',(39.0,45.0,78.0));
#370=DIRECTION('',(0.0,0.0,1.0));
#371=DIRECTION('',(1.0,0.0,0.0));
#372=EDGE_CURVE('',#417,#417,#418,.T.);
#373=EDGE_CURVE('',#419,#419,#420,.T.);
#374=EDGE_CURVE('',#421,#422,#423,.T.);
#375=EDGE_CURVE('',#422,#424,#425,.T.);
#376=EDGE_CURVE('',#424,#426,#427,.T.);
#377=EDGE_CURVE('',#426,#421,#428,.T.);
#378=EDGE_CURVE('',#429,#429,#430,.F.);
#379=EDGE_CURVE('',#431,#421,#432,.T.);
#380=EDGE_CURVE('',#433,#426,#434,.T.);
#381=EDGE_CURVE('',#435,#433,#436,.T.);
#382=EDGE_CURVE('',#437,#435,#438,.T.);
#383=EDGE_CURVE('',#439,#437,#440,.T.);
#384=EDGE_CURVE('',#441,#439,#442,.T.);
#385=EDGE_CURVE('',#441,#443,#444,.T.);
#386=EDGE_CURVE('',#431,#443,#445,.T.);
#387=EDGE_CURVE('',#439,#446,#447,.T.);
#388=EDGE_CURVE('',#437,#448,#449,.T.);
#389=EDGE_CURVE('',#446,#448,#450,.T.);
#390=EDGE_CURVE('',#435,#451,#452,.T.);
#391=EDGE_CURVE('',#448,#451,#453,.T.);
#392=EDGE_CURVE('',#454,#454,#455,.T.);
#393=EDGE_CURVE('',#433,#456,#457,.T.);
#394=EDGE_CURVE('',#451,#456,#458,.T.);
#395=EDGE_CURVE('',#424,#459,#460,.T.);
#396=EDGE_CURVE('',#459,#461,#462,.T.);
#397=EDGE_CURVE('',#456,#461,#463,.T.);
#398=EDGE_CURVE('',#464,#464,#465,.F.);
#399=EDGE_CURVE('',#466,#466,#467,.F.);
#400=EDGE_CURVE('',#468,#468,#469,.F.);
#401=EDGE_CURVE('',#470,#470,#471,.F.);
#402=EDGE_CURVE('',#461,#472,#473,.T.);
#403=EDGE_CURVE('',#459,#474,#475,.T.);
#404=EDGE_CURVE('',#474,#472,#476,.T.);
#405=EDGE_CURVE('',#431,#477,#478,.T.);
#406=EDGE_CURVE('',#472,#477,#479,.T.);
#407=EDGE_CURVE('',#474,#422,#480,.T.);
#408=EDGE_CURVE('',#481,#481,#482,.T.);
#409=EDGE_CURVE('',#443,#483,#484,.T.);
#410=EDGE_CURVE('',#477,#483,#485,.T.);
#411=EDGE_CURVE('',#486,#486,#487,.T.);
#412=EDGE_CURVE('',#488,#488,#489,.T.);
#413=EDGE_CURVE('',#441,#490,#491,.T.);
#414=EDGE_CURVE('',#483,#490,#492,.T.);
#415=EDGE_CURVE('',#493,#493,#494,.F.);
#416=EDGE_CURVE('',#490,#446,#495,.T.);
#417=VERTEX_POINT('',#496);
#418=CIRCLE('',#497,2.5);
#419=VERTEX_POINT('',#498);
#420=CIRCLE('',#499,2.5);
#421=VERTEX_POINT('',#500);
#422=VERTEX_POINT('',#501);
#423=LINE('',#502,#503);
#424=VERTEX_POINT('',#504);
#425=LINE('',#505,#506);
#426=VERTEX_POINT('',#507);
#427=LINE('',#508,#509);
#428=LINE('',#510,#511);
#429=VERTEX_POINT('',#512);
#430=CIRCLE('',#513,2.5);
#431=VERTEX_POINT('',#514);
#432=LINE('',#515,#516);
#433=VERTEX_POINT('',#517);
#434=LINE('',#518,#519);
#435=VERTEX_POINT('',#520);
#436=LINE('',#521,#522);
#437=VERTEX_POINT('',#523);
#438=LINE('',#524,#525);
#439=VERTEX_POINT('',#526);
#440=CIRCLE('',#527,15.0);
#441=VERTEX_POINT('',#528);
#442=LINE('',#529,#530);
#443=VERTEX_POINT('',#531);
#444=LINE('',#532,#533);
#445=LINE('',#534,#535);
#446=VERTEX_POINT('',#536);
#447=LINE('',#537,#538);
#448=VERTEX_POINT('',#539);
#449=LINE('',#540,#541);
#450=CIRCLE('',#542,15.0);
#451=VERTEX_POINT('',#543);
#452=LINE('',#544,#545);
#453=LINE('',#546,#547);
#454=VERTEX_POINT('',#548);
#455=CIRCLE('',#549,4.0);
#456=VERTEX_POINT('',#550);
#457=LINE('',#551,#552);
#458=LINE('',#553,#554);
#459=VERTEX_POINT('',#555);
#460=LINE('',#556,#557);
#461=VERTEX_POINT('',#558);
#462=LINE('',#559,#560);
#463=LINE('',#561,#562);
#464=VERTEX_POINT('',#563);
#465=CIRCLE('',#564,3.0);
#466=VERTEX_POINT('',#565);
#467=CIRCLE('',#566,3.0);
#468=VERTEX_POINT('',#567);
#469=CIRCLE('',#568,4.0);
#470=VERTEX_POINT('',#569);
#471=CIRCLE('',#570,2.5);
#472=VERTEX_POINT('',#571);
#473=LINE('',#572,#573);
#474=VERTEX_POINT('',#574);
#475=LINE('',#575,#576);
#476=LINE('',#577,#578);
#477=VERTEX_POINT('',#579);
#478=LINE('',#580,#581);
#479=LINE('',#582,#583);
#480=LINE('',#584,#585);
#481=VERTEX_POINT('',#586);
#482=CIRCLE('',#587,4.25);
#483=VERTEX_POINT('',#588);
#484=LINE('',#589,#590);
#485=LINE('',#591,#592);
#486=VERTEX_POINT('',#593);
#487=CIRCLE('',#594,3.0);
#488=VERTEX_POINT('',#595);
#489=CIRCLE('',#596,3.0);
#490=VERTEX_POINT('',#597);
#491=LINE('',#598,#599);
#492=LINE('',#600,#601);
#493=VERTEX_POINT('',#602);
#494=ELLIPSE('',#603,5.16131490586363,4.25);
#495=LINE('',#604,#605);
#496=CARTESIAN_POINT('',(60.5,12.0,6.0));
#497=AXIS2_PLACEMENT_3D('',#606,#607,#608);
#498=CARTESIAN_POINT('',(12.5,12.0,6.0));
#499=AXIS2_PLACEMENT_3D('',#609,#610,#611);
#500=CARTESIAN_POINT('',(78.0000000606546,12.0,12.0));
#501=CARTESIAN_POINT('',(78.0000000606546,12.0,0.0));
#502=CARTESIAN_POINT('',(78.0000000606546,12.0,6.0));
#503=VECTOR('',#612,1.0);
#504=CARTESIAN_POINT('',(-6.77507095564467E-15,12.0,0.0));
#505=CARTESIAN_POINT('',(39.0000000303273,12.0,0.0));
#506=VECTOR('',#613,1.0);
#507=CARTESIAN_POINT('',(-7.14245286179138E-15,12.0,12.0));
#508=CARTESIAN_POINT('',(-6.77507095564467E-15,12.0,6.0));
#509=VECTOR('',#614,1.0);
#510=CARTESIAN_POINT('',(39.0000000303273,12.0,12.0));
#511=VECTOR('',#615,1.0);
#512=CARTESIAN_POINT('',(15.0,0.0,3.5));
#513=AXIS2_PLACEMENT_3D('',#616,#617,#618);
#514=CARTESIAN_POINT('',(78.0000000606546,58.0,12.0));
#515=CARTESIAN_POINT('',(78.0000000606546,70.0,12.0));
#516=VECTOR('',#619,1.0);
#517=CARTESIAN_POINT('',(-1.20408782770809E-14,52.0,12.0));
#518=CARTESIAN_POINT('',(-1.42451697139612E-14,70.0,12.0));
#519=VECTOR('',#620,1.0);
#520=CARTESIAN_POINT('',(24.0,52.0,12.0));
#521=CARTESIAN_POINT('',(12.0,52.0,12.0));
#522=VECTOR('',#621,1.0);
#523=CARTESIAN_POINT('',(24.0,45.0,12.0));
#524=CARTESIAN_POINT('',(24.0,48.5,12.0));
#525=VECTOR('',#622,1.0);
#526=CARTESIAN_POINT('',(54.0,45.0,12.0));
#527=AXIS2_PLACEMENT_3D('',#623,#624,#625);
#528=CARTESIAN_POINT('',(55.9982780867992,70.0,12.0));
#529=CARTESIAN_POINT('',(54.9991390433996,57.5,12.0));
#530=VECTOR('',#626,1.0);
#531=CARTESIAN_POINT('',(71.0717968303791,70.0,12.0));
#532=CARTESIAN_POINT('',(39.0000000303273,70.0,12.0));
#533=VECTOR('',#627,1.0);
#534=CARTESIAN_POINT('',(74.5358984455169,64.0,12.0));
#535=VECTOR('',#628,1.0);
#536=CARTESIAN_POINT('',(54.0,45.0,78.0));
#537=CARTESIAN_POINT('',(54.0,45.0,0.0));
#538=VECTOR('',#629,1.0);
#539=CARTESIAN_POINT('',(24.0,45.0,78.0));
#540=CARTESIAN_POINT('',(24.0,45.0,0.0));
#541=VECTOR('',#630,1.0);
#542=AXIS2_PLACEMENT_3D('',#631,#632,#633);
#543=CARTESIAN_POINT('',(24.0,52.0,78.0));
#544=CARTESIAN_POINT('',(24.0,52.0,0.0));
#545=VECTOR('',#634,1.0);
#546=CARTESIAN_POINT('',(24.0,48.5,78.0));
#547=VECTOR('',#635,1.0);
#548=CARTESIAN_POINT('',(5.0,52.0,46.0));
#549=AXIS2_PLACEMENT_3D('',#636,#637,#638);
#550=CARTESIAN_POINT('',(0.0,52.0,78.0));
#551=CARTESIAN_POINT('',(0.0,52.0,0.0));
#552=VECTOR('',#639,1.0);
#553=CARTESIAN_POINT('',(12.0,52.0,78.0));
#554=VECTOR('',#640,1.0);
#555=CARTESIAN_POINT('',(1.59198825996909E-15,0.0,0.0));
#556=CARTESIAN_POINT('',(0.0,26.0,0.0));
#557=VECTOR('',#641,1.0);
#558=CARTESIAN_POINT('',(1.59198825996909E-15,0.0,78.0));
#559=CARTESIAN_POINT('',(1.59198825996909E-15,0.0,0.0));
#560=VECTOR('',#642,1.0);
#561=CARTESIAN_POINT('',(0.0,26.0,78.0));
#562=VECTOR('',#643,1.0);
#563=CARTESIAN_POINT('',(63.5382780867992,0.0,67.5));
#564=AXIS2_PLACEMENT_3D('',#644,#645,#646);
#565=CARTESIAN_POINT('',(63.5382780867992,0.0,16.5));
#566=AXIS2_PLACEMENT_3D('',#647,#648,#649);
#567=CARTESIAN_POINT('',(9.0,0.0,42.0));
#568=AXIS2_PLACEMENT_3D('',#650,#651,#652);
#569=CARTESIAN_POINT('',(63.0,0.0,3.5));
#570=AXIS2_PLACEMENT_3D('',#653,#654,#655);
#571=CARTESIAN_POINT('',(78.0000000606546,0.0,78.0));
#572=CARTESIAN_POINT('',(39.0000000303273,0.0,78.0));
#573=VECTOR('',#656,1.0);
#574=CARTESIAN_POINT('',(78.0000000606546,0.0,0.0));
#575=CARTESIAN_POINT('',(39.0000000303273,0.0,0.0));
#576=VECTOR('',#657,1.0);
#577=CARTESIAN_POINT('',(78.0000000606546,0.0,0.0));
#578=VECTOR('',#658,1.0);
#579=CARTESIAN_POINT('',(78.0000000606546,58.0,78.0));
#580=CARTESIAN_POINT('',(78.0000000606546,58.0,0.0));
#581=VECTOR('',#659,1.0);
#582=CARTESIAN_POINT('',(78.0000000606546,29.0,78.0));
#583=VECTOR('',#660,1.0);
#584=CARTESIAN_POINT('',(78.0000000606546,29.0,0.0));
#585=VECTOR('',#661,1.0);
#586=CARTESIAN_POINT('',(72.4108984455169,67.6806079660839,45.0));
#587=AXIS2_PLACEMENT_3D('',#662,#663,#664);
#588=CARTESIAN_POINT('',(71.0717968303791,70.0,78.0));
#589=CARTESIAN_POINT('',(71.0717968303791,70.0,0.0));
#590=VECTOR('',#665,1.0);
#591=CARTESIAN_POINT('',(74.5358984455169,64.0,78.0));
#592=VECTOR('',#666,1.0);
#593=CARTESIAN_POINT('',(60.5382780867992,70.0,70.5));
#594=AXIS2_PLACEMENT_3D('',#667,#668,#669);
#595=CARTESIAN_POINT('',(60.5382780867992,70.0,19.5));
#596=AXIS2_PLACEMENT_3D('',#670,#671,#672);
#597=CARTESIAN_POINT('',(55.9982780867992,70.0,78.0));
#598=CARTESIAN_POINT('',(55.9982780867992,70.0,0.0));
#599=VECTOR('',#673,1.0);
#600=CARTESIAN_POINT('',(63.5350374585891,70.0,78.0));
#601=VECTOR('',#674,1.0);
#602=CARTESIAN_POINT('',(54.1873826644901,47.344301648103,45.0));
#603=AXIS2_PLACEMENT_3D('',#675,#676,#677);
#604=CARTESIAN_POINT('',(54.9991390433996,57.5,78.0));
#605=VECTOR('',#678,1.0);
#606=CARTESIAN_POINT('',(63.0,12.0,6.0));
#607=DIRECTION('',(-1.22460635382238E-16,1.0,0.0));
#608=DIRECTION('',(-1.0,-1.22460635382238E-16,0.0));
#609=CARTESIAN_POINT('',(15.0,12.0,6.0));
#610=DIRECTION('',(-1.22460635382238E-16,1.0,0.0));
#611=DIRECTION('',(-1.0,-1.22460635382238E-16,0.0));
#612=DIRECTION('',(-6.12303176911189E-17,-7.49830360911069E-33,-1.0));
#613=DIRECTION('',(-1.0,-1.22460635382238E-16,0.0));
#614=DIRECTION('',(-6.12303176911189E-17,-7.49830360911069E-33,1.0));
#615=DIRECTION('',(1.0,1.22460635382238E-16,-1.22460635382238E-16));
#616=CARTESIAN_POINT('',(15.0,0.0,6.0));
#617=DIRECTION('',(0.0,-1.0,0.0));
#618=DIRECTION('',(0.0,0.0,-1.0));
#619=DIRECTION('',(1.22460635382238E-16,-1.0,0.0));
#620=DIRECTION('',(1.22460635382238E-16,-1.0,0.0));
#621=DIRECTION('',(-1.0,0.0,1.22460635382238E-16));
#622=DIRECTION('',(-6.12303176911189E-17,1.0,-7.49830360911069E-33));
#623=CARTESIAN_POINT('',(39.0,45.0,12.0));
#624=DIRECTION('',(-1.22460635382238E-16,-1.49966072182214E-32,-1.0));
#625=DIRECTION('',(-1.0,-2.95755928635252E-63,1.22460635382238E-16));
#626=DIRECTION('',(-0.0796770011589089,-0.99682073387662,9.7572961872713E-18));
#627=DIRECTION('',(1.0,1.22460635382238E-16,-1.22460635382238E-16));
#628=DIRECTION('',(-0.5,0.866025403784439,6.12303176911189E-17));
#629=DIRECTION('',(0.0,0.0,1.0));
#630=DIRECTION('',(0.0,0.0,1.0));
#631=CARTESIAN_POINT('',(39.0,45.0,78.0));
#632=DIRECTION('',(0.0,0.0,-1.0));
#633=DIRECTION('',(1.0,0.0,0.0));
#634=DIRECTION('',(0.0,0.0,1.0));
#635=DIRECTION('',(-6.12303176911189E-17,1.0,0.0));
#636=CARTESIAN_POINT('',(9.0,52.0,46.0));
#637=DIRECTION('',(0.0,1.0,0.0));
#638=DIRECTION('',(-1.0,0.0,0.0));
#639=DIRECTION('',(0.0,0.0,1.0));
#640=DIRECTION('',(-1.0,0.0,0.0));
#641=DIRECTION('',(6.12303176911189E-17,-1.0,0.0));
#642=DIRECTION('',(0.0,0.0,1.0));
#643=DIRECTION('',(6.12303176911189E-17,-1.0,0.0));
#644=CARTESIAN_POINT('',(63.5382780867992,0.0,70.5));
#645=DIRECTION('',(0.0,-1.0,0.0));
#646=DIRECTION('',(0.0,0.0,-1.0));
#647=CARTESIAN_POINT('',(63.5382780867992,0.0,19.5));
#648=DIRECTION('',(0.0,-1.0,0.0));
#649=DIRECTION('',(0.0,0.0,-1.0));
#650=CARTESIAN_POINT('',(9.0,0.0,46.0));
#651=DIRECTION('',(0.0,-1.0,0.0));
#652=DIRECTION('',(0.0,0.0,-1.0));
#653=CARTESIAN_POINT('',(63.0,0.0,6.0));
#654=DIRECTION('',(0.0,-1.0,0.0));
#655=DIRECTION('',(0.0,0.0,-1.0));
#656=DIRECTION('',(1.0,0.0,0.0));
#657=DIRECTION('',(1.0,0.0,0.0));
#658=DIRECTION('',(0.0,0.0,1.0));
#659=DIRECTION('',(0.0,0.0,1.0));
#660=DIRECTION('',(6.12303176911189E-17,1.0,0.0));
#661=DIRECTION('',(6.12303176911189E-17,1.0,0.0));
#662=CARTESIAN_POINT('',(74.5358984455169,64.0,45.0));
#663=DIRECTION('',(0.866025403784439,0.5,0.0));
#664=DIRECTION('',(-0.5,0.866025403784439,0.0));
#665=DIRECTION('',(0.0,0.0,1.0));
#666=DIRECTION('',(-0.5,0.866025403784439,0.0));
#667=CARTESIAN_POINT('',(63.5382780867992,70.0,70.5));
#668=DIRECTION('',(-1.22460635382238E-16,1.0,0.0));
#669=DIRECTION('',(-1.0,-1.22460635382238E-16,0.0));
#670=CARTESIAN_POINT('',(63.5382780867992,70.0,19.5));
#671=DIRECTION('',(-1.22460635382238E-16,1.0,0.0));
#672=DIRECTION('',(-1.0,-1.22460635382238E-16,0.0));
#673=DIRECTION('',(0.0,0.0,1.0));
#674=DIRECTION('',(-1.0,-1.22460635382238E-16,0.0));
#675=CARTESIAN_POINT('',(54.5986207582261,52.4892073603343,45.0));
#676=DIRECTION('',(-0.99682073387662,0.079677001158909,0.0));
#677=DIRECTION('',(-0.079677001158909,-0.99682073387662,0.0));
#678=DIRECTION('',(-0.079677001158909,-0.99682073387662,0.0));
ENDSEC;
END-ISO-10303-21;
