ISO-10303-21;
HEADER;
FILE_DESCRIPTION(('STEP AP214'),'1');
FILE_NAME('capot lampe type CDM2022.stp','2023-03-03T15:22:05',(''),(''),'Spatial InterOp 3D',' ',' ');
FILE_SCHEMA(('AUTOMOTIVE_DESIGN { 1 0 10303 214 1 1 1 1 }'));
ENDSEC;
DATA;
#1=MECHANICAL_DESIGN_GEOMETRIC_PRESENTATION_REPRESENTATION(' ',(#10,#11,#12,#13,#14,#15,#16,#17,#18,#19,#20),#6);
#2=PRODUCT_DEFINITION_CONTEXT('',#21,'design');
#3=APPLICATION_PROTOCOL_DEFINITION('INTERNATIONAL STANDARD','automotive_design',1994,#21);
#4=PRODUCT_CATEGORY_RELATIONSHIP('NONE','NONE',#22,#23);
#5=SHAPE_DEFINITION_REPRESENTATION(#24,#25);
#6= (GEOMETRIC_REPRESENTATION_CONTEXT(3)GLOBAL_UNCERTAINTY_ASSIGNED_CONTEXT((#28))GLOBAL_UNIT_ASSIGNED_CONTEXT((#30,#31,#32))REPRESENTATION_CONTEXT('NONE','WORKSPACE'));
#10=STYLED_ITEM('',(#34),#35);
#11=STYLED_ITEM('',(#36),#37);
#12=STYLED_ITEM('',(#38),#39);
#13=STYLED_ITEM('',(#40),#41);
#14=STYLED_ITEM('',(#42),#43);
#15=STYLED_ITEM('',(#44),#45);
#16=STYLED_ITEM('',(#46),#47);
#17=STYLED_ITEM('',(#48),#49);
#18=STYLED_ITEM('',(#50),#51);
#19=STYLED_ITEM('',(#52),#53);
#20=STYLED_ITEM('',(#54),#55);
#21=APPLICATION_CONTEXT(' ');
#22=PRODUCT_CATEGORY('part','NONE');
#23=PRODUCT_RELATED_PRODUCT_CATEGORY('detail',' ',(#56));
#24=PRODUCT_DEFINITION_SHAPE('NONE','NONE',#57);
#25=ADVANCED_BREP_SHAPE_REPRESENTATION('Part_1383',(#55,#58),#6);
#28=UNCERTAINTY_MEASURE_WITH_UNIT(LENGTH_MEASURE(1.0E-06),#30,'','');
#30= (CONVERSION_BASED_UNIT('INCH',#61)LENGTH_UNIT()NAMED_UNIT(#64));
#31= (NAMED_UNIT(#66)PLANE_ANGLE_UNIT()SI_UNIT($,.RADIAN.));
#32= (NAMED_UNIT(#66)SOLID_ANGLE_UNIT()SI_UNIT($,.STERADIAN.));
#34=PRESENTATION_STYLE_ASSIGNMENT((#72));
#35=ADVANCED_FACE('',(#73),#74,.T.);
#36=PRESENTATION_STYLE_ASSIGNMENT((#75));
#37=ADVANCED_FACE('',(#76),#77,.T.);
#38=PRESENTATION_STYLE_ASSIGNMENT((#78));
#39=ADVANCED_FACE('',(#79),#80,.F.);
#40=PRESENTATION_STYLE_ASSIGNMENT((#81));
#41=ADVANCED_FACE('',(#82),#83,.T.);
#42=PRESENTATION_STYLE_ASSIGNMENT((#84));
#43=ADVANCED_FACE('',(#85),#86,.F.);
#44=PRESENTATION_STYLE_ASSIGNMENT((#87));
#45=ADVANCED_FACE('',(#88),#89,.T.);
#46=PRESENTATION_STYLE_ASSIGNMENT((#90));
#47=ADVANCED_FACE('',(#91),#92,.T.);
#48=PRESENTATION_STYLE_ASSIGNMENT((#93));
#49=ADVANCED_FACE('',(#94),#95,.T.);
#50=PRESENTATION_STYLE_ASSIGNMENT((#96));
#51=ADVANCED_FACE('',(#97,#98),#99,.T.);
#52=PRESENTATION_STYLE_ASSIGNMENT((#100));
#53=ADVANCED_FACE('',(#101,#102),#103,.F.);
#54=PRESENTATION_STYLE_ASSIGNMENT((#104));
#55=MANIFOLD_SOLID_BREP('Part_1383',#105);
#56=PRODUCT('Part_1383','','PART--DESC',(#106));
#57=PRODUCT_DEFINITION('','NONE',#107,#2);
#58=AXIS2_PLACEMENT_3D('',#108,#109,#110);
#61=LENGTH_MEASURE_WITH_UNIT(LENGTH_MEASURE(25.4),#111);
#64=DIMENSIONAL_EXPONENTS(1.0,0.0,0.0,0.0,0.0,0.0,0.0);
#66=DIMENSIONAL_EXPONENTS(0.0,0.0,0.0,0.0,0.0,0.0,0.0);
#72=SURFACE_STYLE_USAGE(.BOTH.,#112);
#73=FACE_OUTER_BOUND('',#113,.T.);
#74=CYLINDRICAL_SURFACE('',#114,0.265748031496063);
#75=SURFACE_STYLE_USAGE(.BOTH.,#115);
#76=FACE_OUTER_BOUND('',#116,.T.);
#77=PLANE('',#117);
#78=SURFACE_STYLE_USAGE(.BOTH.,#118);
#79=FACE_OUTER_BOUND('',#119,.T.);
#80=CYLINDRICAL_SURFACE('',#120,0.230314960629921);
#81=SURFACE_STYLE_USAGE(.BOTH.,#121);
#82=FACE_OUTER_BOUND('',#122,.T.);
#83=PLANE('',#123);
#84=SURFACE_STYLE_USAGE(.BOTH.,#124);
#85=FACE_OUTER_BOUND('',#125,.T.);
#86=CYLINDRICAL_SURFACE('',#126,0.230314960629921);
#87=SURFACE_STYLE_USAGE(.BOTH.,#127);
#88=FACE_OUTER_BOUND('',#128,.T.);
#89=CYLINDRICAL_SURFACE('',#129,0.265748031496063);
#90=SURFACE_STYLE_USAGE(.BOTH.,#130);
#91=FACE_OUTER_BOUND('',#131,.T.);
#92=PLANE('',#132);
#93=SURFACE_STYLE_USAGE(.BOTH.,#133);
#94=FACE_OUTER_BOUND('',#134,.T.);
#95=PLANE('',#135);
#96=SURFACE_STYLE_USAGE(.BOTH.,#136);
#97=FACE_OUTER_BOUND('',#137,.T.);
#98=FACE_BOUND('',#138,.T.);
#99=PLANE('',#139);
#100=SURFACE_STYLE_USAGE(.BOTH.,#140);
#101=FACE_OUTER_BOUND('',#141,.T.);
#102=FACE_BOUND('',#142,.T.);
#103=PLANE('',#143);
#104=SURFACE_STYLE_USAGE(.BOTH.,#144);
#105=CLOSED_SHELL('',(#35,#37,#39,#41,#43,#45,#47,#49,#51,#53));
#106=PRODUCT_CONTEXT('',#21,'mechanical');
#107=PRODUCT_DEFINITION_FORMATION_WITH_SPECIFIED_SOURCE(' ','NONE',#56,.NOT_KNOWN.);
#108=CARTESIAN_POINT('',(0.0,0.0,0.0));
#109=DIRECTION('',(0.0,0.0,1.0));
#110=DIRECTION('',(1.0,0.0,0.0));
#111= (NAMED_UNIT(#64)LENGTH_UNIT()SI_UNIT(.MILLI.,.METRE.));
#112=SURFACE_SIDE_STYLE('',(#146));
#113=EDGE_LOOP('',(#147,#148,#149,#150));
#114=AXIS2_PLACEMENT_3D('',#151,#152,#153);
#115=SURFACE_SIDE_STYLE('',(#154));
#116=EDGE_LOOP('',(#155,#156,#157,#158));
#117=AXIS2_PLACEMENT_3D('',#159,#160,#161);
#118=SURFACE_SIDE_STYLE('',(#162));
#119=EDGE_LOOP('',(#163,#164,#165,#166));
#120=AXIS2_PLACEMENT_3D('',#167,#168,#169);
#121=SURFACE_SIDE_STYLE('',(#170));
#122=EDGE_LOOP('',(#171,#172,#173,#174));
#123=AXIS2_PLACEMENT_3D('',#175,#176,#177);
#124=SURFACE_SIDE_STYLE('',(#178));
#125=EDGE_LOOP('',(#179,#180,#181,#182));
#126=AXIS2_PLACEMENT_3D('',#183,#184,#185);
#127=SURFACE_SIDE_STYLE('',(#186));
#128=EDGE_LOOP('',(#187,#188,#189,#190));
#129=AXIS2_PLACEMENT_3D('',#191,#192,#193);
#130=SURFACE_SIDE_STYLE('',(#194));
#131=EDGE_LOOP('',(#195,#196,#197,#198));
#132=AXIS2_PLACEMENT_3D('',#199,#200,#201);
#133=SURFACE_SIDE_STYLE('',(#202));
#134=EDGE_LOOP('',(#203,#204,#205,#206));
#135=AXIS2_PLACEMENT_3D('',#207,#208,#209);
#136=SURFACE_SIDE_STYLE('',(#210));
#137=EDGE_LOOP('',(#211,#212,#213,#214));
#138=EDGE_LOOP('',(#215,#216,#217,#218));
#139=AXIS2_PLACEMENT_3D('',#219,#220,#221);
#140=SURFACE_SIDE_STYLE('',(#222));
#141=EDGE_LOOP('',(#223,#224,#225,#226));
#142=EDGE_LOOP('',(#227,#228,#229,#230));
#143=AXIS2_PLACEMENT_3D('',#231,#232,#233);
#144=SURFACE_SIDE_STYLE('',(#234));
#146=SURFACE_STYLE_FILL_AREA(#235);
#147=ORIENTED_EDGE('',*,*,#236,.T.);
#148=ORIENTED_EDGE('',*,*,#237,.T.);
#149=ORIENTED_EDGE('',*,*,#238,.F.);
#150=ORIENTED_EDGE('',*,*,#239,.F.);
#151=CARTESIAN_POINT('',(-0.787401932703318,0.372047244094488,1.63897204238928E-07));
#152=DIRECTION('',(1.0,0.0,6.12323399573676E-17));
#153=DIRECTION('',(6.12323399573676E-17,0.0,-1.0));
#154=SURFACE_STYLE_FILL_AREA(#240);
#155=ORIENTED_EDGE('',*,*,#241,.T.);
#156=ORIENTED_EDGE('',*,*,#242,.F.);
#157=ORIENTED_EDGE('',*,*,#243,.F.);
#158=ORIENTED_EDGE('',*,*,#244,.T.);
#159=CARTESIAN_POINT('',(-0.787401932703318,-9.46690783543147E-06,-0.230314953222439));
#160=DIRECTION('',(-6.12323399573676E-17,0.0,1.0));
#161=DIRECTION('',(0.0,-1.0,0.0));
#162=SURFACE_STYLE_FILL_AREA(#245);
#163=ORIENTED_EDGE('',*,*,#246,.T.);
#164=ORIENTED_EDGE('',*,*,#247,.F.);
#165=ORIENTED_EDGE('',*,*,#248,.T.);
#166=ORIENTED_EDGE('',*,*,#242,.T.);
#167=CARTESIAN_POINT('',(-0.787401932703318,0.372037777186653,7.40748261340851E-09));
#168=DIRECTION('',(1.0,0.0,6.12323399573676E-17));
#169=DIRECTION('',(6.12323399573676E-17,0.0,-1.0));
#170=SURFACE_STYLE_FILL_AREA(#249);
#171=ORIENTED_EDGE('',*,*,#250,.T.);
#172=ORIENTED_EDGE('',*,*,#251,.F.);
#173=ORIENTED_EDGE('',*,*,#252,.T.);
#174=ORIENTED_EDGE('',*,*,#247,.T.);
#175=CARTESIAN_POINT('',(-0.787401932703318,-9.46690783543147E-06,0.230314968037404));
#176=DIRECTION('',(6.12323399573676E-17,0.0,-1.0));
#177=DIRECTION('',(0.0,1.0,0.0));
#178=SURFACE_STYLE_FILL_AREA(#253);
#179=ORIENTED_EDGE('',*,*,#254,.T.);
#180=ORIENTED_EDGE('',*,*,#244,.F.);
#181=ORIENTED_EDGE('',*,*,#255,.T.);
#182=ORIENTED_EDGE('',*,*,#251,.T.);
#183=CARTESIAN_POINT('',(-0.787401932703318,-0.372056711002324,7.40748261340851E-09));
#184=DIRECTION('',(1.0,0.0,6.12323399573676E-17));
#185=DIRECTION('',(6.12323399573676E-17,0.0,-1.0));
#186=SURFACE_STYLE_FILL_AREA(#256);
#187=ORIENTED_EDGE('',*,*,#257,.F.);
#188=ORIENTED_EDGE('',*,*,#258,.F.);
#189=ORIENTED_EDGE('',*,*,#259,.T.);
#190=ORIENTED_EDGE('',*,*,#260,.T.);
#191=CARTESIAN_POINT('',(-0.787401932703318,-0.372047244094488,1.63897204238928E-07));
#192=DIRECTION('',(1.0,0.0,6.12323399573676E-17));
#193=DIRECTION('',(6.12323399573676E-17,0.0,-1.0));
#194=SURFACE_STYLE_FILL_AREA(#261);
#195=ORIENTED_EDGE('',*,*,#262,.T.);
#196=ORIENTED_EDGE('',*,*,#236,.F.);
#197=ORIENTED_EDGE('',*,*,#263,.F.);
#198=ORIENTED_EDGE('',*,*,#257,.T.);
#199=CARTESIAN_POINT('',(-0.787401932703318,-4.44089209850063E-16,0.265748038903546));
#200=DIRECTION('',(-6.12323399573676E-17,-2.08886406114659E-15,1.0));
#201=DIRECTION('',(1.27906034316856E-31,-1.0,-2.08886406114659E-15));
#202=SURFACE_STYLE_FILL_AREA(#264);
#203=ORIENTED_EDGE('',*,*,#265,.T.);
#204=ORIENTED_EDGE('',*,*,#259,.F.);
#205=ORIENTED_EDGE('',*,*,#266,.T.);
#206=ORIENTED_EDGE('',*,*,#238,.T.);
#207=CARTESIAN_POINT('',(-0.787401932703318,2.66453525910038E-15,-0.265748024088581));
#208=DIRECTION('',(6.12323399573676E-17,2.38727321273896E-15,-1.0));
#209=DIRECTION('',(-1.46178324933549E-31,1.0,2.38727321273896E-15));
#210=SURFACE_STYLE_FILL_AREA(#267);
#211=ORIENTED_EDGE('',*,*,#260,.F.);
#212=ORIENTED_EDGE('',*,*,#265,.F.);
#213=ORIENTED_EDGE('',*,*,#237,.F.);
#214=ORIENTED_EDGE('',*,*,#262,.F.);
#215=ORIENTED_EDGE('',*,*,#241,.F.);
#216=ORIENTED_EDGE('',*,*,#254,.F.);
#217=ORIENTED_EDGE('',*,*,#250,.F.);
#218=ORIENTED_EDGE('',*,*,#246,.F.);
#219=CARTESIAN_POINT('',(0.787401216902982,-2.72249175035622,0.0885052639148753));
#220=DIRECTION('',(1.0,0.0,6.12323399573676E-17));
#221=DIRECTION('',(6.12323399573676E-17,0.0,-1.0));
#222=SURFACE_STYLE_FILL_AREA(#268);
#223=ORIENTED_EDGE('',*,*,#266,.F.);
#224=ORIENTED_EDGE('',*,*,#258,.T.);
#225=ORIENTED_EDGE('',*,*,#263,.T.);
#226=ORIENTED_EDGE('',*,*,#239,.T.);
#227=ORIENTED_EDGE('',*,*,#255,.F.);
#228=ORIENTED_EDGE('',*,*,#243,.T.);
#229=ORIENTED_EDGE('',*,*,#248,.F.);
#230=ORIENTED_EDGE('',*,*,#252,.F.);
#231=CARTESIAN_POINT('',(-0.787401932703318,-2.72249175035622,0.0885052639148752));
#232=DIRECTION('',(1.0,0.0,6.12323399573676E-17));
#233=DIRECTION('',(6.12323399573676E-17,0.0,-1.0));
#234=SURFACE_STYLE_FILL_AREA(#269);
#235=FILL_AREA_STYLE('',(#270));
#236=EDGE_CURVE('',#271,#272,#273,.T.);
#237=EDGE_CURVE('',#272,#274,#275,.T.);
#238=EDGE_CURVE('',#276,#274,#277,.T.);
#239=EDGE_CURVE('',#271,#276,#278,.T.);
#240=FILL_AREA_STYLE('',(#279));
#241=EDGE_CURVE('',#280,#281,#282,.T.);
#242=EDGE_CURVE('',#283,#281,#284,.T.);
#243=EDGE_CURVE('',#285,#283,#286,.T.);
#244=EDGE_CURVE('',#285,#280,#287,.T.);
#245=FILL_AREA_STYLE('',(#288));
#246=EDGE_CURVE('',#281,#289,#290,.T.);
#247=EDGE_CURVE('',#291,#289,#292,.T.);
#248=EDGE_CURVE('',#291,#283,#293,.T.);
#249=FILL_AREA_STYLE('',(#294));
#250=EDGE_CURVE('',#289,#295,#296,.T.);
#251=EDGE_CURVE('',#297,#295,#298,.T.);
#252=EDGE_CURVE('',#297,#291,#299,.T.);
#253=FILL_AREA_STYLE('',(#300));
#254=EDGE_CURVE('',#295,#280,#301,.T.);
#255=EDGE_CURVE('',#285,#297,#302,.T.);
#256=FILL_AREA_STYLE('',(#303));
#257=EDGE_CURVE('',#304,#305,#306,.T.);
#258=EDGE_CURVE('',#307,#304,#308,.T.);
#259=EDGE_CURVE('',#307,#309,#310,.T.);
#260=EDGE_CURVE('',#309,#305,#311,.T.);
#261=FILL_AREA_STYLE('',(#312));
#262=EDGE_CURVE('',#305,#272,#313,.T.);
#263=EDGE_CURVE('',#304,#271,#314,.T.);
#264=FILL_AREA_STYLE('',(#315));
#265=EDGE_CURVE('',#274,#309,#316,.T.);
#266=EDGE_CURVE('',#307,#276,#317,.T.);
#267=FILL_AREA_STYLE('',(#318));
#268=FILL_AREA_STYLE('',(#319));
#269=FILL_AREA_STYLE('',(#320));
#270=FILL_AREA_STYLE_COLOUR('',#321);
#271=VERTEX_POINT('',#322);
#272=VERTEX_POINT('',#323);
#273=LINE('',#324,#325);
#274=VERTEX_POINT('',#326);
#275=CIRCLE('',#327,0.265748031496063);
#276=VERTEX_POINT('',#328);
#277=LINE('',#329,#330);
#278=CIRCLE('',#331,0.265748031496063);
#279=FILL_AREA_STYLE_COLOUR('',#332);
#280=VERTEX_POINT('',#333);
#281=VERTEX_POINT('',#334);
#282=LINE('',#335,#336);
#283=VERTEX_POINT('',#337);
#284=LINE('',#338,#339);
#285=VERTEX_POINT('',#340);
#286=LINE('',#341,#342);
#287=LINE('',#343,#344);
#288=FILL_AREA_STYLE_COLOUR('',#345);
#289=VERTEX_POINT('',#346);
#290=CIRCLE('',#347,0.230314960629921);
#291=VERTEX_POINT('',#348);
#292=LINE('',#349,#350);
#293=CIRCLE('',#351,0.230314960629921);
#294=FILL_AREA_STYLE_COLOUR('',#352);
#295=VERTEX_POINT('',#353);
#296=LINE('',#354,#355);
#297=VERTEX_POINT('',#356);
#298=LINE('',#357,#358);
#299=LINE('',#359,#360);
#300=FILL_AREA_STYLE_COLOUR('',#361);
#301=CIRCLE('',#362,0.230314960629921);
#302=CIRCLE('',#363,0.230314960629921);
#303=FILL_AREA_STYLE_COLOUR('',#364);
#304=VERTEX_POINT('',#365);
#305=VERTEX_POINT('',#366);
#306=LINE('',#367,#368);
#307=VERTEX_POINT('',#369);
#308=CIRCLE('',#370,0.265748031496063);
#309=VERTEX_POINT('',#371);
#310=LINE('',#372,#373);
#311=CIRCLE('',#374,0.265748031496063);
#312=FILL_AREA_STYLE_COLOUR('',#375);
#313=LINE('',#376,#377);
#314=LINE('',#378,#379);
#315=FILL_AREA_STYLE_COLOUR('',#380);
#316=LINE('',#381,#382);
#317=LINE('',#383,#384);
#318=FILL_AREA_STYLE_COLOUR('',#385);
#319=FILL_AREA_STYLE_COLOUR('',#386);
#320=FILL_AREA_STYLE_COLOUR('',#387);
#321=COLOUR_RGB('',0.0,0.0,0.0);
#322=CARTESIAN_POINT('',(-0.787401932703318,0.371903044886313,0.265748117148407));
#323=CARTESIAN_POINT('',(0.787401216902982,0.371903044886313,0.265748117148407));
#324=CARTESIAN_POINT('',(-0.787401932703318,0.371758845678138,0.265748038903546));
#325=VECTOR('',#388,1.0);
#326=CARTESIAN_POINT('',(0.787401216902982,0.372047244094491,-0.265747867598859));
#327=AXIS2_PLACEMENT_3D('',#389,#390,#391);
#328=CARTESIAN_POINT('',(-0.787401932703318,0.372047244094491,-0.265747867598859));
#329=CARTESIAN_POINT('',(-0.787401932703318,0.372047244094491,-0.265747867598859));
#330=VECTOR('',#392,1.0);
#331=AXIS2_PLACEMENT_3D('',#393,#394,#395);
#332=COLOUR_RGB('',0.0,0.0,0.0);
#333=CARTESIAN_POINT('',(0.787401216902982,-0.372056711002324,-0.230314953222439));
#334=CARTESIAN_POINT('',(0.787401216902982,0.372037777186653,-0.230314953222439));
#335=CARTESIAN_POINT('',(0.787401216902982,-1.17522698658478,-0.230314953222439));
#336=VECTOR('',#396,1.0);
#337=CARTESIAN_POINT('',(-0.787401932703318,0.372037777186653,-0.230314953222439));
#338=CARTESIAN_POINT('',(-0.787401932703318,0.372037777186653,-0.230314953222439));
#339=VECTOR('',#397,1.0);
#340=CARTESIAN_POINT('',(-0.787401932703318,-0.372056711002324,-0.230314953222439));
#341=CARTESIAN_POINT('',(-0.787401932703318,-1.17522698658478,-0.230314953222439));
#342=VECTOR('',#398,1.0);
#343=CARTESIAN_POINT('',(-0.787401932703318,-0.372056711002324,-0.230314953222439));
#344=VECTOR('',#399,1.0);
#345=COLOUR_RGB('',0.0,0.0,0.0);
#346=CARTESIAN_POINT('',(0.787401216902982,0.372037777186653,0.230314968037404));
#347=AXIS2_PLACEMENT_3D('',#400,#401,#402);
#348=CARTESIAN_POINT('',(-0.787401932703318,0.372037777186653,0.230314968037404));
#349=CARTESIAN_POINT('',(-0.787401932703318,0.372037777186653,0.230314968037404));
#350=VECTOR('',#403,1.0);
#351=AXIS2_PLACEMENT_3D('',#404,#405,#406);
#352=COLOUR_RGB('',0.0,0.0,0.0);
#353=CARTESIAN_POINT('',(0.787401216902982,-0.372056711002324,0.230314968037404));
#354=CARTESIAN_POINT('',(0.787401216902982,-1.17522698658478,0.230314968037404));
#355=VECTOR('',#407,1.0);
#356=CARTESIAN_POINT('',(-0.787401932703318,-0.372056711002324,0.230314968037404));
#357=CARTESIAN_POINT('',(-0.787401932703318,-0.372056711002324,0.230314968037404));
#358=VECTOR('',#408,1.0);
#359=CARTESIAN_POINT('',(-0.787401932703318,-1.17522698658478,0.230314968037404));
#360=VECTOR('',#409,1.0);
#361=COLOUR_RGB('',0.0,0.0,0.0);
#362=AXIS2_PLACEMENT_3D('',#410,#411,#412);
#363=AXIS2_PLACEMENT_3D('',#413,#414,#415);
#364=COLOUR_RGB('',0.0,0.0,0.0);
#365=CARTESIAN_POINT('',(-0.787401932703318,-0.371903044886313,0.265748117148407));
#366=CARTESIAN_POINT('',(0.787401216902982,-0.371903044886313,0.265748117148407));
#367=CARTESIAN_POINT('',(-0.787401932703318,-0.371758845678138,0.265748038903546));
#368=VECTOR('',#416,1.0);
#369=CARTESIAN_POINT('',(-0.787401932703318,-0.372047244094486,-0.265747867598859));
#370=AXIS2_PLACEMENT_3D('',#417,#418,#419);
#371=CARTESIAN_POINT('',(0.787401216902982,-0.372047244094486,-0.265747867598859));
#372=CARTESIAN_POINT('',(-0.787401932703318,-0.372047244094486,-0.265747867598859));
#373=VECTOR('',#420,1.0);
#374=AXIS2_PLACEMENT_3D('',#421,#422,#423);
#375=COLOUR_RGB('',0.0,0.0,0.0);
#376=CARTESIAN_POINT('',(0.787401216902982,-1.17522225313087,0.265748038903543));
#377=VECTOR('',#424,1.0);
#378=CARTESIAN_POINT('',(-0.787401932703318,-1.17522225313087,0.265748038903543));
#379=VECTOR('',#425,1.0);
#380=COLOUR_RGB('',0.0,0.0,0.0);
#381=CARTESIAN_POINT('',(0.787401216902982,-1.17522225313087,-0.265748024088583));
#382=VECTOR('',#426,1.0);
#383=CARTESIAN_POINT('',(-0.787401932703318,-1.17522225313087,-0.265748024088583));
#384=VECTOR('',#427,1.0);
#385=COLOUR_RGB('',0.0,0.0,0.0);
#386=COLOUR_RGB('',0.0,0.0,0.0);
#387=COLOUR_RGB('',0.0,0.0,0.0);
#388=DIRECTION('',(1.0,0.0,6.12323399573676E-17));
#389=CARTESIAN_POINT('',(0.787401216902982,0.372047244094488,1.63897204336072E-07));
#390=DIRECTION('',(-1.0,-0.0,-6.12323399573676E-17));
#391=DIRECTION('',(6.12323399573676E-17,0.0,-1.0));
#392=DIRECTION('',(1.0,0.0,6.12323399573676E-17));
#393=CARTESIAN_POINT('',(-0.787401932703318,0.372047244094488,1.63897204238928E-07));
#394=DIRECTION('',(-1.0,-0.0,-6.12323399573676E-17));
#395=DIRECTION('',(6.12323399573676E-17,0.0,-1.0));
#396=DIRECTION('',(0.0,1.0,0.0));
#397=DIRECTION('',(1.0,0.0,6.12323399573676E-17));
#398=DIRECTION('',(0.0,1.0,0.0));
#399=DIRECTION('',(1.0,0.0,6.12323399573676E-17));
#400=CARTESIAN_POINT('',(0.787401216902982,0.372037777186653,7.40748271055303E-09));
#401=DIRECTION('',(1.0,0.0,6.12323399573676E-17));
#402=DIRECTION('',(6.12323399573676E-17,0.0,-1.0));
#403=DIRECTION('',(1.0,0.0,6.12323399573676E-17));
#404=CARTESIAN_POINT('',(-0.787401932703318,0.372037777186653,7.40748261340851E-09));
#405=DIRECTION('',(-1.0,-0.0,-6.12323399573676E-17));
#406=DIRECTION('',(6.12323399573676E-17,0.0,-1.0));
#407=DIRECTION('',(0.0,-1.0,0.0));
#408=DIRECTION('',(1.0,0.0,6.12323399573676E-17));
#409=DIRECTION('',(0.0,1.0,0.0));
#410=CARTESIAN_POINT('',(0.787401216902982,-0.372056711002324,7.40748271055303E-09));
#411=DIRECTION('',(1.0,0.0,6.12323399573676E-17));
#412=DIRECTION('',(6.12323399573676E-17,0.0,-1.0));
#413=CARTESIAN_POINT('',(-0.787401932703318,-0.372056711002324,7.40748261340851E-09));
#414=DIRECTION('',(-1.0,-0.0,-6.12323399573676E-17));
#415=DIRECTION('',(6.12323399573676E-17,0.0,-1.0));
#416=DIRECTION('',(1.0,0.0,6.12323399573676E-17));
#417=CARTESIAN_POINT('',(-0.787401932703318,-0.372047244094488,1.63897204238928E-07));
#418=DIRECTION('',(-1.0,-0.0,-6.12323399573676E-17));
#419=DIRECTION('',(6.12323399573676E-17,0.0,-1.0));
#420=DIRECTION('',(1.0,0.0,6.12323399573676E-17));
#421=CARTESIAN_POINT('',(0.787401216902982,-0.372047244094488,1.63897204336072E-07));
#422=DIRECTION('',(-1.0,-0.0,-6.12323399573676E-17));
#423=DIRECTION('',(6.12323399573676E-17,0.0,-1.0));
#424=DIRECTION('',(-1.27906034316856E-31,1.0,2.08886406114659E-15));
#425=DIRECTION('',(-1.27906034316856E-31,1.0,2.08886406114659E-15));
#426=DIRECTION('',(1.46178324933549E-31,-1.0,-2.38727321273896E-15));
#427=DIRECTION('',(-1.46178324933549E-31,1.0,2.38727321273896E-15));
#428=PRESENTATION_LAYER_ASSIGNMENT('3','Layer1',(#55));
ENDSEC;
END-ISO-10303-21;
