ISO-10303-21;
HEADER;
FILE_DESCRIPTION(('CATIA V5 STEP Exchange','CAx-IF Rec.Pracs.--- Model Styling and Organization---1.2---2011-12-15'),'2;1');

FILE_NAME('D:\\NOIX Y.stp','2023-03-14T13:37:54+00:00',('none'),('none'),'CATIA Version 5-6 Release 2015 SP4 HF38','CATIA V5 STEP AP203 Edition 2','none');

FILE_SCHEMA(('AP203_CONFIGURATION_CONTROLLED_3D_DESIGN_OF_MECHANICAL_PARTS_AND_ASSEMBLIES_MIM_LF  { 1 0 10303 403 3 1 4}'));

ENDSEC;
DATA;
#5=PRODUCT('PART34','','',(#2)) ;
#2=PRODUCT_CONTEXT(' ',#1,'mechanical') ;
#1=APPLICATION_CONTEXT('configuration controlled 3D design of mechanical parts and assemblies') ;
#13=PRODUCT_DEFINITION('',' ',#6,#3) ;
#3=PRODUCT_DEFINITION_CONTEXT('part definition',#1,' ') ;
#14=PRODUCT_DEFINITION_SHAPE(' ',' ',#13) ;
#12=DATE_AND_TIME(#10,#11) ;
#11=LOCAL_TIME(14,37,54.,#9) ;
#9=COORDINATED_UNIVERSAL_TIME_OFFSET(0,0,.AHEAD.) ;
#7=PRODUCT_CATEGORY('part','specification') ;
#22=SHAPE_REPRESENTATION(' ',(#21),#19) ;
#20=CARTESIAN_POINT(' ',(0.,0.,0.)) ;
#34=CARTESIAN_POINT('Axis2P3D Location',(15.,0.,0.)) ;
#39=CARTESIAN_POINT('Line Origine',(15.,18.,0.)) ;
#43=CARTESIAN_POINT('Vertex',(0.,18.,0.)) ;
#45=CARTESIAN_POINT('Vertex',(30.,18.,0.)) ;
#48=CARTESIAN_POINT('Axis2P3D Location',(0.,0.,0.)) ;
#52=CARTESIAN_POINT('Vertex',(0.,-18.,2.20436423847E-015)) ;
#55=CARTESIAN_POINT('Line Origine',(15.,-18.,2.20436423847E-015)) ;
#59=CARTESIAN_POINT('Vertex',(30.,-18.,2.20436423847E-015)) ;
#62=CARTESIAN_POINT('Axis2P3D Location',(30.,0.,0.)) ;
#74=CARTESIAN_POINT('Axis2P3D Location',(0.,0.,0.)) ;
#79=CARTESIAN_POINT('Axis2P3D Location',(30.,0.,0.)) ;
#91=CARTESIAN_POINT('Axis2P3D Location',(15.,0.,0.)) ;
#96=CARTESIAN_POINT('Axis2P3D Location',(30.,0.,0.)) ;
#100=CARTESIAN_POINT('Vertex',(30.,-11.,1.34711147906E-015)) ;
#102=CARTESIAN_POINT('Vertex',(30.,11.,0.)) ;
#105=CARTESIAN_POINT('Line Origine',(15.,11.,-2.69422295812E-015)) ;
#109=CARTESIAN_POINT('Vertex',(0.,11.,0.)) ;
#112=CARTESIAN_POINT('Axis2P3D Location',(0.,0.,0.)) ;
#116=CARTESIAN_POINT('Vertex',(0.,-11.,1.34711147906E-015)) ;
#119=CARTESIAN_POINT('Line Origine',(15.,-11.,1.34711147906E-015)) ;
#131=CARTESIAN_POINT('Axis2P3D Location',(30.,0.,0.)) ;
#136=CARTESIAN_POINT('Axis2P3D Location',(0.,0.,0.)) ;
#148=CARTESIAN_POINT('Axis2P3D Location',(0.,0.,0.)) ;
#162=CARTESIAN_POINT('Axis2P3D Location',(30.,0.,0.)) ;
#10=CALENDAR_DATE(2023,14,3) ;
#8=PRODUCT_RELATED_PRODUCT_CATEGORY('part',$,(#5)) ;
#18=UNCERTAINTY_MEASURE_WITH_UNIT(LENGTH_MEASURE(0.005),#15,'distance_accuracy_value','CONFUSED CURVE UNCERTAINTY') ;
#35=DIRECTION('Axis2P3D Direction',(1.,0.,0.)) ;
#36=DIRECTION('Axis2P3D XDirection',(0.,1.,0.)) ;
#40=DIRECTION('Vector Direction',(1.,0.,0.)) ;
#49=DIRECTION('Axis2P3D Direction',(1.,0.,0.)) ;
#56=DIRECTION('Vector Direction',(1.,0.,0.)) ;
#63=DIRECTION('Axis2P3D Direction',(1.,0.,0.)) ;
#75=DIRECTION('Axis2P3D Direction',(1.,0.,0.)) ;
#80=DIRECTION('Axis2P3D Direction',(1.,0.,0.)) ;
#92=DIRECTION('Axis2P3D Direction',(1.,0.,0.)) ;
#93=DIRECTION('Axis2P3D XDirection',(0.,1.,0.)) ;
#97=DIRECTION('Axis2P3D Direction',(1.,0.,0.)) ;
#106=DIRECTION('Vector Direction',(1.,0.,0.)) ;
#113=DIRECTION('Axis2P3D Direction',(1.,0.,0.)) ;
#120=DIRECTION('Vector Direction',(1.,0.,0.)) ;
#132=DIRECTION('Axis2P3D Direction',(1.,0.,0.)) ;
#137=DIRECTION('Axis2P3D Direction',(1.,0.,0.)) ;
#149=DIRECTION('Axis2P3D Direction',(1.,0.,0.)) ;
#150=DIRECTION('Axis2P3D XDirection',(0.,1.,0.)) ;
#163=DIRECTION('Axis2P3D Direction',(1.,0.,0.)) ;
#164=DIRECTION('Axis2P3D XDirection',(0.,1.,0.)) ;
#21=AXIS2_PLACEMENT_3D(' ',#20,$,$) ;
#37=AXIS2_PLACEMENT_3D('Cylinder Axis2P3D',#34,#35,#36) ;
#50=AXIS2_PLACEMENT_3D('Circle Axis2P3D',#48,#49,$) ;
#64=AXIS2_PLACEMENT_3D('Circle Axis2P3D',#62,#63,$) ;
#76=AXIS2_PLACEMENT_3D('Circle Axis2P3D',#74,#75,$) ;
#81=AXIS2_PLACEMENT_3D('Circle Axis2P3D',#79,#80,$) ;
#94=AXIS2_PLACEMENT_3D('Cylinder Axis2P3D',#91,#92,#93) ;
#98=AXIS2_PLACEMENT_3D('Circle Axis2P3D',#96,#97,$) ;
#114=AXIS2_PLACEMENT_3D('Circle Axis2P3D',#112,#113,$) ;
#133=AXIS2_PLACEMENT_3D('Circle Axis2P3D',#131,#132,$) ;
#138=AXIS2_PLACEMENT_3D('Circle Axis2P3D',#136,#137,$) ;
#151=AXIS2_PLACEMENT_3D('Plane Axis2P3D',#148,#149,#150) ;
#165=AXIS2_PLACEMENT_3D('Plane Axis2P3D',#162,#163,#164) ;
#32=STYLED_ITEM(' ',(#31),#24) ;
#31=PRESENTATION_STYLE_ASSIGNMENT((#30)) ;
#30=SURFACE_STYLE_USAGE(.BOTH.,#29) ;
#29=SURFACE_SIDE_STYLE(' ',(#28)) ;
#28=SURFACE_STYLE_FILL_AREA(#27) ;
#27=FILL_AREA_STYLE(' ',(#26)) ;
#26=FILL_AREA_STYLE_COLOUR(' ',#25) ;
#41=VECTOR('Line Direction',#40,1.) ;
#57=VECTOR('Line Direction',#56,1.) ;
#107=VECTOR('Line Direction',#106,1.) ;
#121=VECTOR('Line Direction',#120,1.) ;
#47=EDGE_CURVE('',#44,#46,#42,.T.) ;
#54=EDGE_CURVE('',#44,#53,#51,.T.) ;
#61=EDGE_CURVE('',#53,#60,#58,.T.) ;
#66=EDGE_CURVE('',#46,#60,#65,.T.) ;
#78=EDGE_CURVE('',#53,#44,#77,.T.) ;
#83=EDGE_CURVE('',#60,#46,#82,.T.) ;
#104=EDGE_CURVE('',#101,#103,#99,.T.) ;
#111=EDGE_CURVE('',#110,#103,#108,.T.) ;
#118=EDGE_CURVE('',#117,#110,#115,.T.) ;
#123=EDGE_CURVE('',#117,#101,#122,.T.) ;
#135=EDGE_CURVE('',#103,#101,#134,.T.) ;
#140=EDGE_CURVE('',#110,#117,#139,.T.) ;
#152=PLANE('',#151) ;
#166=PLANE('',#165) ;
#177=SHAPE_REPRESENTATION_RELATIONSHIP(' ',' ',#22,#176) ;
#160=FACE_BOUND('',#157,.T.) ;
#174=FACE_BOUND('',#171,.T.) ;
#68=ORIENTED_EDGE('',*,*,#47,.F.) ;
#69=ORIENTED_EDGE('',*,*,#54,.T.) ;
#70=ORIENTED_EDGE('',*,*,#61,.T.) ;
#71=ORIENTED_EDGE('',*,*,#66,.F.) ;
#85=ORIENTED_EDGE('',*,*,#61,.F.) ;
#86=ORIENTED_EDGE('',*,*,#78,.T.) ;
#87=ORIENTED_EDGE('',*,*,#47,.T.) ;
#88=ORIENTED_EDGE('',*,*,#83,.F.) ;
#125=ORIENTED_EDGE('',*,*,#104,.T.) ;
#126=ORIENTED_EDGE('',*,*,#111,.F.) ;
#127=ORIENTED_EDGE('',*,*,#118,.F.) ;
#128=ORIENTED_EDGE('',*,*,#123,.T.) ;
#142=ORIENTED_EDGE('',*,*,#135,.T.) ;
#143=ORIENTED_EDGE('',*,*,#123,.F.) ;
#144=ORIENTED_EDGE('',*,*,#140,.F.) ;
#145=ORIENTED_EDGE('',*,*,#111,.T.) ;
#154=ORIENTED_EDGE('',*,*,#78,.F.) ;
#155=ORIENTED_EDGE('',*,*,#54,.F.) ;
#158=ORIENTED_EDGE('',*,*,#140,.T.) ;
#159=ORIENTED_EDGE('',*,*,#118,.T.) ;
#168=ORIENTED_EDGE('',*,*,#66,.T.) ;
#169=ORIENTED_EDGE('',*,*,#83,.T.) ;
#172=ORIENTED_EDGE('',*,*,#104,.F.) ;
#173=ORIENTED_EDGE('',*,*,#135,.F.) ;
#33=CLOSED_SHELL('Closed Shell',(#73,#90,#130,#147,#161,#175)) ;
#178=MECHANICAL_DESIGN_GEOMETRIC_PRESENTATION_REPRESENTATION(' ',(#32),#19) ;
#176=ADVANCED_BREP_SHAPE_REPRESENTATION('NONE',(#24),#19) ;
#73=ADVANCED_FACE('Corps principal',(#72),#38,.T.) ;
#90=ADVANCED_FACE('Corps principal',(#89),#38,.T.) ;
#130=ADVANCED_FACE('Corps principal',(#129),#95,.F.) ;
#147=ADVANCED_FACE('Corps principal',(#146),#95,.F.) ;
#161=ADVANCED_FACE('Corps principal',(#156,#160),#152,.F.) ;
#175=ADVANCED_FACE('Corps principal',(#170,#174),#166,.T.) ;
#4=APPLICATION_PROTOCOL_DEFINITION('draft international standard','configuration_control_3d_design_ed2_mim',2004,#1) ;
#24=MANIFOLD_SOLID_BREP('Corps principal',#33) ;
#51=CIRCLE('generated circle',#50,18.) ;
#65=CIRCLE('generated circle',#64,18.) ;
#77=CIRCLE('generated circle',#76,18.) ;
#82=CIRCLE('generated circle',#81,18.) ;
#99=CIRCLE('generated circle',#98,11.) ;
#115=CIRCLE('generated circle',#114,11.) ;
#134=CIRCLE('generated circle',#133,11.) ;
#139=CIRCLE('generated circle',#138,11.) ;
#25=COLOUR_RGB('Colour',0.823529411765,0.823529411765,1.) ;
#38=CYLINDRICAL_SURFACE('generated cylinder',#37,18.) ;
#95=CYLINDRICAL_SURFACE('generated cylinder',#94,11.) ;
#67=EDGE_LOOP('',(#68,#69,#70,#71)) ;
#84=EDGE_LOOP('',(#85,#86,#87,#88)) ;
#124=EDGE_LOOP('',(#125,#126,#127,#128)) ;
#141=EDGE_LOOP('',(#142,#143,#144,#145)) ;
#153=EDGE_LOOP('',(#154,#155)) ;
#157=EDGE_LOOP('',(#158,#159)) ;
#167=EDGE_LOOP('',(#168,#169)) ;
#171=EDGE_LOOP('',(#172,#173)) ;
#72=FACE_OUTER_BOUND('',#67,.T.) ;
#89=FACE_OUTER_BOUND('',#84,.T.) ;
#129=FACE_OUTER_BOUND('',#124,.T.) ;
#146=FACE_OUTER_BOUND('',#141,.T.) ;
#156=FACE_OUTER_BOUND('',#153,.T.) ;
#170=FACE_OUTER_BOUND('',#167,.T.) ;
#42=LINE('Line',#39,#41) ;
#58=LINE('Line',#55,#57) ;
#108=LINE('Line',#105,#107) ;
#122=LINE('Line',#119,#121) ;
#6=PRODUCT_DEFINITION_FORMATION_WITH_SPECIFIED_SOURCE('',' ',#5,.NOT_KNOWN.) ;
#23=SHAPE_DEFINITION_REPRESENTATION(#14,#22) ;
#44=VERTEX_POINT('',#43) ;
#46=VERTEX_POINT('',#45) ;
#53=VERTEX_POINT('',#52) ;
#60=VERTEX_POINT('',#59) ;
#101=VERTEX_POINT('',#100) ;
#103=VERTEX_POINT('',#102) ;
#110=VERTEX_POINT('',#109) ;
#117=VERTEX_POINT('',#116) ;
#15=(LENGTH_UNIT()NAMED_UNIT(*)SI_UNIT(.MILLI.,.METRE.)) ;
#16=(NAMED_UNIT(*)PLANE_ANGLE_UNIT()SI_UNIT($,.RADIAN.)) ;
#17=(NAMED_UNIT(*)SI_UNIT($,.STERADIAN.)SOLID_ANGLE_UNIT()) ;
#19=(GEOMETRIC_REPRESENTATION_CONTEXT(3)GLOBAL_UNCERTAINTY_ASSIGNED_CONTEXT((#18))GLOBAL_UNIT_ASSIGNED_CONTEXT((#15,#16,#17))REPRESENTATION_CONTEXT(' ',' ')) ;
ENDSEC;
END-ISO-10303-21;
