ISO-10303-21;
HEADER;
FILE_DESCRIPTION (( 'STEP AP214' ),
    '1' );
FILE_NAME ('23-03-24 BUZE DOME.STEP',
    '2023-03-24T21:53:15',
    ( '' ),
    ( '' ),
    'SwSTEP 2.0',
    'SolidWorks 2022',
    '' );
FILE_SCHEMA (( 'AUTOMOTIVE_DESIGN' ));
ENDSEC;

DATA;
#1 = ORIENTED_EDGE ( 'NONE', *, *, #222, .F. ) ;
#2 = DIRECTION ( 'NONE',  ( -0.000000000000000000, -1.000000000000000000, -0.000000000000000000 ) ) ;
#3 =( GEOMETRIC_REPRESENTATION_CONTEXT ( 3 ) GLOBAL_UNCERTAINTY_ASSIGNED_CONTEXT ( ( #340 ) ) GLOBAL_UNIT_ASSIGNED_CONTEXT ( ( #29, #60, #148 ) ) REPRESENTATION_CONTEXT ( 'NONE', 'WORKASPACE' ) );
#4 = ORIENTED_EDGE ( 'NONE', *, *, #248, .T. ) ;
#5 = VERTEX_POINT ( 'NONE', #319 ) ;
#6 = EDGE_CURVE ( 'NONE', #170, #256, #229, .T. ) ;
#7 = SURFACE_SIDE_STYLE ('',( #223 ) ) ;
#8 = VERTEX_POINT ( 'NONE', #176 ) ;
#9 = ORIENTED_EDGE ( 'NONE', *, *, #198, .F. ) ;
#10 = AXIS2_PLACEMENT_3D ( 'NONE', #188, #240, #132 ) ;
#11 = EDGE_LOOP ( 'NONE', ( #221, #284 ) ) ;
#12 = CARTESIAN_POINT ( 'NONE',  ( 0.000000000000000000, -34.30000000000000426, 0.000000000000000000 ) ) ;
#13 = ORIENTED_EDGE ( 'NONE', *, *, #222, .T. ) ;
#14 = VERTEX_POINT ( 'NONE', #118 ) ;
#15 = DIRECTION ( 'NONE',  ( 0.000000000000000000, 0.000000000000000000, -1.000000000000000000 ) ) ;
#16 = CARTESIAN_POINT ( 'NONE',  ( 0.000000000000000000, -34.30000000000000426, 0.000000000000000000 ) ) ;
#17 = EDGE_CURVE ( 'NONE', #194, #8, #71, .T. ) ;
#18 = CARTESIAN_POINT ( 'NONE',  ( 0.000000000000000000, 14.83692603327970616, 0.000000000000000000 ) ) ;
#19 = ADVANCED_FACE ( 'NONE', ( #288 ), #41, .T. ) ;
#20 = CYLINDRICAL_SURFACE ( 'NONE', #37, 10.25000000000000000 ) ;
#21 = LINE ( 'NONE', #350, #321 ) ;
#22 = CARTESIAN_POINT ( 'NONE',  ( 0.000000000000000000, 10.00000000000000000, 0.000000000000000000 ) ) ;
#23 = FACE_OUTER_BOUND ( 'NONE', #91, .T. ) ;
#24 = SURFACE_STYLE_FILL_AREA ( #108 ) ;
#25 = CYLINDRICAL_SURFACE ( 'NONE', #262, 9.250000000000001776 ) ;
#26 = LINE ( 'NONE', #137, #33 ) ;
#27 = VECTOR ( 'NONE', #234, 1000.000000000000000 ) ;
#28 = ORIENTED_EDGE ( 'NONE', *, *, #260, .T. ) ;
#29 =( LENGTH_UNIT ( ) NAMED_UNIT ( * ) SI_UNIT ( .MILLI., .METRE. ) );
#30 = VERTEX_POINT ( 'NONE', #42 ) ;
#31 = EDGE_CURVE ( 'NONE', #306, #69, #58, .T. ) ;
#32 = EDGE_LOOP ( 'NONE', ( #171, #117, #331, #28 ) ) ;
#33 = VECTOR ( 'NONE', #298, 1000.000000000000000 ) ;
#34 =( NAMED_UNIT ( * ) PLANE_ANGLE_UNIT ( ) SI_UNIT ( $, .RADIAN. ) );
#35 = EDGE_LOOP ( 'NONE', ( #251, #116 ) ) ;
#36 = PRODUCT_RELATED_PRODUCT_CATEGORY ( 'part', '', ( #274 ) ) ;
#37 = AXIS2_PLACEMENT_3D ( 'NONE', #242, #212, #78 ) ;
#38 = DIRECTION ( 'NONE',  ( 0.000000000000000000, 0.000000000000000000, 1.000000000000000000 ) ) ;
#39 = ORIENTED_EDGE ( 'NONE', *, *, #31, .T. ) ;
#40 = AXIS2_PLACEMENT_3D ( 'NONE', #312, #67, #287 ) ;
#41 = SPHERICAL_SURFACE ( 'NONE', #119, 50.00000000000000711 ) ;
#42 = CARTESIAN_POINT ( 'NONE',  ( 2.449293598294706513E-15, 11.52575694955840291, 20.00000000000000000 ) ) ;
#43 = AXIS2_PLACEMENT_3D ( 'NONE', #50, #53, #163 ) ;
#44 = VERTEX_POINT ( 'NONE', #232 ) ;
#45 = CARTESIAN_POINT ( 'NONE',  ( 0.000000000000000000, 0.000000000000000000, 0.000000000000000000 ) ) ;
#46 = EDGE_CURVE ( 'NONE', #44, #142, #334, .T. ) ;
#47 = CARTESIAN_POINT ( 'NONE',  ( 0.000000000000000000, -34.30000000000000426, 0.000000000000000000 ) ) ;
#48 = SURFACE_SIDE_STYLE ('',( #24 ) ) ;
#49 = DIRECTION ( 'NONE',  ( -0.000000000000000000, -1.000000000000000000, -0.000000000000000000 ) ) ;
#50 = CARTESIAN_POINT ( 'NONE',  ( 0.000000000000000000, 12.00000000000000000, 0.000000000000000000 ) ) ;
#51 = DIRECTION ( 'NONE',  ( 0.000000000000000000, 0.000000000000000000, -1.000000000000000000 ) ) ;
#52 = CARTESIAN_POINT ( 'NONE',  ( 0.000000000000000000, 11.52575694955840291, 0.000000000000000000 ) ) ;
#53 = DIRECTION ( 'NONE',  ( -0.000000000000000000, -1.000000000000000000, -0.000000000000000000 ) ) ;
#54 = COLOUR_RGB ( '',0.7921568627450980005, 0.8196078431372548767, 0.9333333333333333481 ) ;
#55 = CARTESIAN_POINT ( 'NONE',  ( 0.000000000000000000, 0.000000000000000000, 0.000000000000000000 ) ) ;
#56 = CARTESIAN_POINT ( 'NONE',  ( 0.000000000000000000, 11.52575694955840291, 0.000000000000000000 ) ) ;
#57 = ORIENTED_EDGE ( 'NONE', *, *, #198, .T. ) ;
#58 = CIRCLE ( 'NONE', #289, 9.250000000000000000 ) ;
#59 = VERTEX_POINT ( 'NONE', #315 ) ;
#60 =( NAMED_UNIT ( * ) PLANE_ANGLE_UNIT ( ) SI_UNIT ( $, .RADIAN. ) );
#61 = EDGE_CURVE ( 'NONE', #341, #256, #147, .T. ) ;
#62 = EDGE_LOOP ( 'NONE', ( #96, #283, #291, #66 ) ) ;
#63 = APPLICATION_PROTOCOL_DEFINITION ( 'draft international standard', 'automotive_design', 1998, #172 ) ;
#64 = PRODUCT_DEFINITION_SHAPE ( 'NONE', 'NONE',  #101 ) ;
#65 = ORIENTED_EDGE ( 'NONE', *, *, #167, .F. ) ;
#66 = ORIENTED_EDGE ( 'NONE', *, *, #17, .F. ) ;
#67 = DIRECTION ( 'NONE',  ( -0.000000000000000000, -1.000000000000000000, -0.000000000000000000 ) ) ;
#68 = EDGE_CURVE ( 'NONE', #5, #14, #73, .T. ) ;
#69 = VERTEX_POINT ( 'NONE', #202 ) ;
#70 = MECHANICAL_DESIGN_GEOMETRIC_PRESENTATION_REPRESENTATION (  '', ( #134 ), #100 ) ;
#71 = LINE ( 'NONE', #122, #177 ) ;
#72 = CARTESIAN_POINT ( 'NONE',  ( 0.000000000000000000, 0.000000000000000000, 0.000000000000000000 ) ) ;
#73 = CIRCLE ( 'NONE', #277, 9.250000000000000000 ) ;
#74 = DIRECTION ( 'NONE',  ( 0.000000000000000000, 0.000000000000000000, -1.000000000000000000 ) ) ;
#75 = FACE_OUTER_BOUND ( 'NONE', #230, .T. ) ;
#76 = DIRECTION ( 'NONE',  ( 0.000000000000000000, 0.000000000000000000, -1.000000000000000000 ) ) ;
#77 = DIRECTION ( 'NONE',  ( -0.000000000000000000, -1.000000000000000000, -0.000000000000000000 ) ) ;
#78 = DIRECTION ( 'NONE',  ( 0.000000000000000000, 0.000000000000000000, -1.000000000000000000 ) ) ;
#79 = CARTESIAN_POINT ( 'NONE',  ( 10.25000000000000000, 10.00000000000000000, 0.000000000000000000 ) ) ;
#80 = DIRECTION ( 'NONE',  ( 0.000000000000000000, -1.000000000000000000, -0.000000000000000000 ) ) ;
#81 = VECTOR ( 'NONE', #355, 1000.000000000000000 ) ;
#82 = ORIENTED_EDGE ( 'NONE', *, *, #31, .F. ) ;
#83 = ADVANCED_FACE ( 'NONE', ( #238 ), #190, .F. ) ;
#84 = EDGE_LOOP ( 'NONE', ( #338, #154, #178, #144, #336 ) ) ;
#85 = ADVANCED_FACE ( 'NONE', ( #297 ), #267, .T. ) ;
#86 = DIRECTION ( 'NONE',  ( 1.000000000000000000, 0.000000000000000000, 0.000000000000000000 ) ) ;
#87 = AXIS2_PLACEMENT_3D ( 'NONE', #270, #130, #329 ) ;
#88 = ADVANCED_BREP_SHAPE_REPRESENTATION ( '23-03-24 BUZE DOME', ( #317, #204 ), #146 ) ;
#89 = EDGE_LOOP ( 'NONE', ( #224, #314, #39, #114, #9, #179 ) ) ;
#90 = PRESENTATION_LAYER_ASSIGNMENT (  '', '', ( #134 ) ) ;
#91 = EDGE_LOOP ( 'NONE', ( #57, #4, #98, #220, #153 ) ) ;
#92 = ORIENTED_EDGE ( 'NONE', *, *, #201, .F. ) ;
#93 = UNCERTAINTY_MEASURE_WITH_UNIT (LENGTH_MEASURE( 1.000000000000000082E-05 ), #135, 'distance_accuracy_value', 'NONE');
#94 = DIRECTION ( 'NONE',  ( -0.000000000000000000, -1.000000000000000000, -0.000000000000000000 ) ) ;
#95 = ORIENTED_EDGE ( 'NONE', *, *, #6, .F. ) ;
#96 = ORIENTED_EDGE ( 'NONE', *, *, #313, .F. ) ;
#97 = ADVANCED_FACE ( 'NONE', ( #327 ), #301, .F. ) ;
#98 = ORIENTED_EDGE ( 'NONE', *, *, #201, .T. ) ;
#99 = DIRECTION ( 'NONE',  ( 0.000000000000000000, 0.000000000000000000, -1.000000000000000000 ) ) ;
#100 =( GEOMETRIC_REPRESENTATION_CONTEXT ( 3 ) GLOBAL_UNCERTAINTY_ASSIGNED_CONTEXT ( ( #93 ) ) GLOBAL_UNIT_ASSIGNED_CONTEXT ( ( #135, #243, #139 ) ) REPRESENTATION_CONTEXT ( 'NONE', 'WORKASPACE' ) );
#101 = PRODUCT_DEFINITION ( 'UNKNOWN', '', #121, #203 ) ;
#102 = AXIS2_PLACEMENT_3D ( 'NONE', #128, #348, #159 ) ;
#103 = CYLINDRICAL_SURFACE ( 'NONE', #111, 20.00000000000000000 ) ;
#104 = DIRECTION ( 'NONE',  ( 0.000000000000000000, 0.000000000000000000, -1.000000000000000000 ) ) ;
#105 = AXIS2_PLACEMENT_3D ( 'NONE', #45, #320, #51 ) ;
#106 = CARTESIAN_POINT ( 'NONE',  ( 0.000000000000000000, 14.83692603327970616, -9.250000000000000000 ) ) ;
#107 = CARTESIAN_POINT ( 'NONE',  ( 0.000000000000000000, 12.00000000000000000, 0.000000000000000000 ) ) ;
#108 = FILL_AREA_STYLE ('',( #276 ) ) ;
#109 = CARTESIAN_POINT ( 'NONE',  ( 0.000000000000000000, 12.00000000000000000, -9.250000000000001776 ) ) ;
#110 = DIRECTION ( 'NONE',  ( 0.000000000000000000, 0.000000000000000000, -1.000000000000000000 ) ) ;
#111 = AXIS2_PLACEMENT_3D ( 'NONE', #265, #209, #74 ) ;
#112 = FACE_OUTER_BOUND ( 'NONE', #35, .T. ) ;
#113 = DIRECTION ( 'NONE',  ( 0.000000000000000000, 0.000000000000000000, -1.000000000000000000 ) ) ;
#114 = ORIENTED_EDGE ( 'NONE', *, *, #167, .T. ) ;
#115 = ORIENTED_EDGE ( 'NONE', *, *, #150, .T. ) ;
#116 = ORIENTED_EDGE ( 'NONE', *, *, #313, .T. ) ;
#117 = ORIENTED_EDGE ( 'NONE', *, *, #161, .F. ) ;
#118 = CARTESIAN_POINT ( 'NONE',  ( -9.250000000000000000, 14.83692603327970616, 1.791045943753003908E-15 ) ) ;
#119 = AXIS2_PLACEMENT_3D ( 'NONE', #12, #231, #294 ) ;
#120 = ORIENTED_EDGE ( 'NONE', *, *, #248, .F. ) ;
#121 = PRODUCT_DEFINITION_FORMATION_WITH_SPECIFIED_SOURCE ( 'ANY', '', #274, .NOT_KNOWN. ) ;
#122 = CARTESIAN_POINT ( 'NONE',  ( 0.000000000000000000, 0.000000000000000000, -10.25000000000000000 ) ) ;
#123 = EDGE_CURVE ( 'NONE', #257, #59, #21, .T. ) ;
#124 = ORIENTED_EDGE ( 'NONE', *, *, #247, .F. ) ;
#125 = DIRECTION ( 'NONE',  ( 0.000000000000000000, 0.000000000000000000, -1.000000000000000000 ) ) ;
#126 = DIRECTION ( 'NONE',  ( -1.000000000000000000, 0.000000000000000000, 0.000000000000000000 ) ) ;
#127 = AXIS2_PLACEMENT_3D ( 'NONE', #347, #80, #15 ) ;
#128 = CARTESIAN_POINT ( 'NONE',  ( 0.000000000000000000, 11.52575694955840291, 0.000000000000000000 ) ) ;
#129 = CARTESIAN_POINT ( 'NONE',  ( 0.000000000000000000, 10.00000000000000000, -20.00000000000000000 ) ) ;
#130 = DIRECTION ( 'NONE',  ( 0.000000000000000000, 0.000000000000000000, 1.000000000000000000 ) ) ;
#131 = DIRECTION ( 'NONE',  ( 0.000000000000000000, 0.000000000000000000, -1.000000000000000000 ) ) ;
#132 = DIRECTION ( 'NONE',  ( 0.000000000000000000, 0.000000000000000000, -1.000000000000000000 ) ) ;
#133 = ADVANCED_FACE ( 'NONE', ( #23 ), #324, .T. ) ;
#134 = STYLED_ITEM ( 'NONE', ( #356 ), #317 ) ;
#135 =( LENGTH_UNIT ( ) NAMED_UNIT ( * ) SI_UNIT ( .MILLI., .METRE. ) );
#136 = DIRECTION ( 'NONE',  ( 1.224646799147353207E-16, -0.000000000000000000, 1.000000000000000000 ) ) ;
#137 = CARTESIAN_POINT ( 'NONE',  ( 0.000000000000000000, 0.000000000000000000, -9.250000000000001776 ) ) ;
#138 = CARTESIAN_POINT ( 'NONE',  ( 20.00000000000000355, 11.52575694955839936, 0.000000000000000000 ) ) ;
#139 =( NAMED_UNIT ( * ) SI_UNIT ( $, .STERADIAN. ) SOLID_ANGLE_UNIT ( ) );
#140 = EDGE_LOOP ( 'NONE', ( #293, #206, #115, #279, #120, #65 ) ) ;
#141 = PRESENTATION_LAYER_ASSIGNMENT (  '', '', ( #258 ) ) ;
#142 = VERTEX_POINT ( 'NONE', #109 ) ;
#143 = CIRCLE ( 'NONE', #343, 10.25000000000000000 ) ;
#144 = ORIENTED_EDGE ( 'NONE', *, *, #263, .F. ) ;
#145 = APPLICATION_PROTOCOL_DEFINITION ( 'draft international standard', 'automotive_design', 1998, #254 ) ;
#146 =( GEOMETRIC_REPRESENTATION_CONTEXT ( 3 ) GLOBAL_UNCERTAINTY_ASSIGNED_CONTEXT ( ( #309 ) ) GLOBAL_UNIT_ASSIGNED_CONTEXT ( ( #330, #34, #227 ) ) REPRESENTATION_CONTEXT ( 'NONE', 'WORKASPACE' ) );
#147 = LINE ( 'NONE', #261, #27 ) ;
#148 =( NAMED_UNIT ( * ) SI_UNIT ( $, .STERADIAN. ) SOLID_ANGLE_UNIT ( ) );
#149 = EDGE_LOOP ( 'NONE', ( #1, #310 ) ) ;
#150 = EDGE_CURVE ( 'NONE', #14, #196, #151, .T. ) ;
#151 = CIRCLE ( 'NONE', #211, 50.00000000000000711 ) ;
#152 = EDGE_CURVE ( 'NONE', #196, #341, #286, .T. ) ;
#153 = ORIENTED_EDGE ( 'NONE', *, *, #61, .F. ) ;
#154 = ORIENTED_EDGE ( 'NONE', *, *, #247, .T. ) ;
#155 = FACE_OUTER_BOUND ( 'NONE', #62, .T. ) ;
#156 = MECHANICAL_DESIGN_GEOMETRIC_PRESENTATION_REPRESENTATION (  '', ( #258 ), #3 ) ;
#157 = FACE_OUTER_BOUND ( 'NONE', #249, .T. ) ;
#158 = DIRECTION ( 'NONE',  ( 0.000000000000000000, 0.000000000000000000, -1.000000000000000000 ) ) ;
#159 = DIRECTION ( 'NONE',  ( 0.000000000000000000, 0.000000000000000000, -1.000000000000000000 ) ) ;
#160 = CIRCLE ( 'NONE', #173, 9.250000000000001776 ) ;
#161 = EDGE_CURVE ( 'NONE', #194, #257, #332, .T. ) ;
#162 = CARTESIAN_POINT ( 'NONE',  ( 2.449293598294706513E-15, 10.00000000000000000, 20.00000000000000000 ) ) ;
#163 = DIRECTION ( 'NONE',  ( 0.000000000000000000, 0.000000000000000000, -1.000000000000000000 ) ) ;
#164 = CARTESIAN_POINT ( 'NONE',  ( 0.000000000000000000, 12.00000000000000000, -10.25000000000000000 ) ) ;
#165 = LINE ( 'NONE', #169, #187 ) ;
#166 = CIRCLE ( 'NONE', #304, 50.00000000000000711 ) ;
#167 = EDGE_CURVE ( 'NONE', #69, #226, #166, .T. ) ;
#168 = DIRECTION ( 'NONE',  ( -0.000000000000000000, -1.000000000000000000, -0.000000000000000000 ) ) ;
#169 = CARTESIAN_POINT ( 'NONE',  ( 1.132798289211301895E-15, 0.000000000000000000, 9.250000000000001776 ) ) ;
#170 = VERTEX_POINT ( 'NONE', #162 ) ;
#171 = ORIENTED_EDGE ( 'NONE', *, *, #123, .F. ) ;
#172 = APPLICATION_CONTEXT ( 'automotive_design' ) ;
#173 = AXIS2_PLACEMENT_3D ( 'NONE', #182, #49, #303 ) ;
#174 = ORIENTED_EDGE ( 'NONE', *, *, #278, .F. ) ;
#175 = ORIENTED_EDGE ( 'NONE', *, *, #290, .T. ) ;
#176 = CARTESIAN_POINT ( 'NONE',  ( 0.000000000000000000, 10.00000000000000000, -10.25000000000000000 ) ) ;
#177 = VECTOR ( 'NONE', #228, 1000.000000000000000 ) ;
#178 = ORIENTED_EDGE ( 'NONE', *, *, #46, .T. ) ;
#179 = ORIENTED_EDGE ( 'NONE', *, *, #152, .F. ) ;
#180 = DIRECTION ( 'NONE',  ( 0.000000000000000000, 0.000000000000000000, -1.000000000000000000 ) ) ;
#181 = AXIS2_PLACEMENT_3D ( 'NONE', #344, #207, #180 ) ;
#182 = CARTESIAN_POINT ( 'NONE',  ( 0.000000000000000000, 12.00000000000000000, 0.000000000000000000 ) ) ;
#183 = DIRECTION ( 'NONE',  ( -0.000000000000000000, -1.000000000000000000, -0.000000000000000000 ) ) ;
#184 = ADVANCED_FACE ( 'NONE', ( #155 ), #20, .F. ) ;
#185 = DIRECTION ( 'NONE',  ( -0.000000000000000000, -1.000000000000000000, -0.000000000000000000 ) ) ;
#186 = CARTESIAN_POINT ( 'NONE',  ( 0.000000000000000000, 11.52575694955840291, 0.000000000000000000 ) ) ;
#187 = VECTOR ( 'NONE', #271, 1000.000000000000000 ) ;
#188 = CARTESIAN_POINT ( 'NONE',  ( 0.000000000000000000, 0.000000000000000000, 0.000000000000000000 ) ) ;
#189 = CARTESIAN_POINT ( 'NONE',  ( 0.000000000000000000, 10.00000000000000000, 0.000000000000000000 ) ) ;
#190 = CYLINDRICAL_SURFACE ( 'NONE', #10, 10.25000000000000000 ) ;
#191 = CIRCLE ( 'NONE', #225, 10.25000000000000000 ) ;
#192 = CIRCLE ( 'NONE', #236, 20.00000000000000000 ) ;
#193 = SURFACE_STYLE_USAGE ( .BOTH. , #7 ) ;
#194 = VERTEX_POINT ( 'NONE', #164 ) ;
#195 = CLOSED_SHELL ( 'NONE', ( #97, #19, #133, #184, #210, #83, #268, #213, #85, #237 ) ) ;
#196 = VERTEX_POINT ( 'NONE', #217 ) ;
#197 = CIRCLE ( 'NONE', #43, 10.25000000000000000 ) ;
#198 = EDGE_CURVE ( 'NONE', #341, #226, #192, .T. ) ;
#199 = SHAPE_DEFINITION_REPRESENTATION ( #64, #88 ) ;
#200 = EDGE_LOOP ( 'NONE', ( #124, #174, #82, #208, #13 ) ) ;
#201 = EDGE_CURVE ( 'NONE', #30, #170, #235, .T. ) ;
#202 = CARTESIAN_POINT ( 'NONE',  ( 9.250000000000000000, 14.83692603327970616, 0.000000000000000000 ) ) ;
#203 = PRODUCT_DEFINITION_CONTEXT ( 'detailed design', #254, 'design' ) ;
#204 = AXIS2_PLACEMENT_3D ( 'NONE', #333, #38, #86 ) ;
#205 = ORIENTED_EDGE ( 'NONE', *, *, #326, .T. ) ;
#206 = ORIENTED_EDGE ( 'NONE', *, *, #68, .T. ) ;
#207 = DIRECTION ( 'NONE',  ( -0.000000000000000000, -1.000000000000000000, -0.000000000000000000 ) ) ;
#208 = ORIENTED_EDGE ( 'NONE', *, *, #263, .T. ) ;
#209 = DIRECTION ( 'NONE',  ( -0.000000000000000000, -1.000000000000000000, -0.000000000000000000 ) ) ;
#210 = ADVANCED_FACE ( 'NONE', ( #112, #264 ), #219, .T. ) ;
#211 = AXIS2_PLACEMENT_3D ( 'NONE', #16, #136, #299 ) ;
#212 = DIRECTION ( 'NONE',  ( -0.000000000000000000, -1.000000000000000000, -0.000000000000000000 ) ) ;
#213 = ADVANCED_FACE ( 'NONE', ( #157 ), #103, .T. ) ;
#214 = CARTESIAN_POINT ( 'NONE',  ( 0.000000000000000000, 14.83692603327970616, 0.000000000000000000 ) ) ;
#215 = DIRECTION ( 'NONE',  ( 0.000000000000000000, 0.000000000000000000, -1.000000000000000000 ) ) ;
#216 = SURFACE_STYLE_USAGE ( .BOTH. , #48 ) ;
#217 = CARTESIAN_POINT ( 'NONE',  ( -20.00000000000000355, 11.52575694955839936, 2.449293598294706907E-15 ) ) ;
#218 = DIRECTION ( 'NONE',  ( 0.000000000000000000, 0.000000000000000000, -1.000000000000000000 ) ) ;
#219 = PLANE ( 'NONE',  #127 ) ;
#220 = ORIENTED_EDGE ( 'NONE', *, *, #290, .F. ) ;
#221 = ORIENTED_EDGE ( 'NONE', *, *, #260, .F. ) ;
#222 = EDGE_CURVE ( 'NONE', #142, #44, #160, .T. ) ;
#223 = SURFACE_STYLE_FILL_AREA ( #285 ) ;
#224 = ORIENTED_EDGE ( 'NONE', *, *, #150, .F. ) ;
#225 = AXIS2_PLACEMENT_3D ( 'NONE', #189, #77, #110 ) ;
#226 = VERTEX_POINT ( 'NONE', #138 ) ;
#227 =( NAMED_UNIT ( * ) SI_UNIT ( $, .STERADIAN. ) SOLID_ANGLE_UNIT ( ) );
#228 = DIRECTION ( 'NONE',  ( -0.000000000000000000, -1.000000000000000000, -0.000000000000000000 ) ) ;
#229 = CIRCLE ( 'NONE', #40, 20.00000000000000000 ) ;
#230 = EDGE_LOOP ( 'NONE', ( #175, #255 ) ) ;
#231 = DIRECTION ( 'NONE',  ( 0.000000000000000000, 0.000000000000000000, 1.000000000000000000 ) ) ;
#232 = CARTESIAN_POINT ( 'NONE',  ( 1.132798289211301895E-15, 12.00000000000000000, 9.250000000000001776 ) ) ;
#233 = AXIS2_PLACEMENT_3D ( 'NONE', #79, #269, #266 ) ;
#234 = DIRECTION ( 'NONE',  ( -0.000000000000000000, -1.000000000000000000, -0.000000000000000000 ) ) ;
#235 = LINE ( 'NONE', #322, #81 ) ;
#236 = AXIS2_PLACEMENT_3D ( 'NONE', #52, #273, #244 ) ;
#237 = ADVANCED_FACE ( 'NONE', ( #275 ), #25, .F. ) ;
#238 = FACE_OUTER_BOUND ( 'NONE', #32, .T. ) ;
#239 = DIRECTION ( 'NONE',  ( -0.000000000000000000, -1.000000000000000000, -0.000000000000000000 ) ) ;
#240 = DIRECTION ( 'NONE',  ( -0.000000000000000000, -1.000000000000000000, -0.000000000000000000 ) ) ;
#241 = COLOUR_RGB ( '',0.7921568627450980005, 0.8196078431372548767, 0.9333333333333333481 ) ;
#242 = CARTESIAN_POINT ( 'NONE',  ( 0.000000000000000000, 0.000000000000000000, 0.000000000000000000 ) ) ;
#243 =( NAMED_UNIT ( * ) PLANE_ANGLE_UNIT ( ) SI_UNIT ( $, .RADIAN. ) );
#244 = DIRECTION ( 'NONE',  ( 0.000000000000000000, 0.000000000000000000, -1.000000000000000000 ) ) ;
#245 = DIRECTION ( 'NONE',  ( 0.000000000000000000, 0.000000000000000000, -1.000000000000000000 ) ) ;
#246 = DIRECTION ( 'NONE',  ( 0.000000000000000000, 0.000000000000000000, -1.000000000000000000 ) ) ;
#247 = EDGE_CURVE ( 'NONE', #5, #44, #165, .T. ) ;
#248 = EDGE_CURVE ( 'NONE', #226, #30, #250, .T. ) ;
#249 = EDGE_LOOP ( 'NONE', ( #92, #205, #281, #342, #95 ) ) ;
#250 = CIRCLE ( 'NONE', #308, 20.00000000000000000 ) ;
#251 = ORIENTED_EDGE ( 'NONE', *, *, #161, .T. ) ;
#252 = FILL_AREA_STYLE_COLOUR ( '', #54 ) ;
#253 = CIRCLE ( 'NONE', #346, 9.250000000000000000 ) ;
#254 = APPLICATION_CONTEXT ( 'automotive_design' ) ;
#255 = ORIENTED_EDGE ( 'NONE', *, *, #6, .T. ) ;
#256 = VERTEX_POINT ( 'NONE', #129 ) ;
#257 = VERTEX_POINT ( 'NONE', #323 ) ;
#258 = STYLED_ITEM ( 'NONE', ( #282 ), #88 ) ;
#259 = CARTESIAN_POINT ( 'NONE',  ( 0.000000000000000000, 14.83692603327970616, 0.000000000000000000 ) ) ;
#260 = EDGE_CURVE ( 'NONE', #8, #59, #143, .T. ) ;
#261 = CARTESIAN_POINT ( 'NONE',  ( 0.000000000000000000, 0.000000000000000000, -20.00000000000000000 ) ) ;
#262 = AXIS2_PLACEMENT_3D ( 'NONE', #55, #168, #246 ) ;
#263 = EDGE_CURVE ( 'NONE', #306, #142, #26, .T. ) ;
#264 = FACE_BOUND ( 'NONE', #149, .T. ) ;
#265 = CARTESIAN_POINT ( 'NONE',  ( 0.000000000000000000, 0.000000000000000000, 0.000000000000000000 ) ) ;
#266 = DIRECTION ( 'NONE',  ( 0.000000000000000000, 0.000000000000000000, -1.000000000000000000 ) ) ;
#267 = SPHERICAL_SURFACE ( 'NONE', #87, 50.00000000000000711 ) ;
#268 = ADVANCED_FACE ( 'NONE', ( #75, #328 ), #354, .T. ) ;
#269 = DIRECTION ( 'NONE',  ( 0.000000000000000000, -1.000000000000000000, -0.000000000000000000 ) ) ;
#270 = CARTESIAN_POINT ( 'NONE',  ( 0.000000000000000000, -34.30000000000000426, 0.000000000000000000 ) ) ;
#271 = DIRECTION ( 'NONE',  ( -0.000000000000000000, -1.000000000000000000, -0.000000000000000000 ) ) ;
#272 = AXIS2_PLACEMENT_3D ( 'NONE', #214, #239, #131 ) ;
#273 = DIRECTION ( 'NONE',  ( -0.000000000000000000, -1.000000000000000000, -0.000000000000000000 ) ) ;
#274 = PRODUCT ( '23-03-24 BUZE DOME', '23-03-24 BUZE DOME', '', ( #337 ) ) ;
#275 = FACE_OUTER_BOUND ( 'NONE', #200, .T. ) ;
#276 = FILL_AREA_STYLE_COLOUR ( '', #241 ) ;
#277 = AXIS2_PLACEMENT_3D ( 'NONE', #345, #94, #99 ) ;
#278 = EDGE_CURVE ( 'NONE', #69, #5, #253, .T. ) ;
#279 = ORIENTED_EDGE ( 'NONE', *, *, #326, .F. ) ;
#280 = EDGE_CURVE ( 'NONE', #14, #306, #352, .T. ) ;
#281 = ORIENTED_EDGE ( 'NONE', *, *, #152, .T. ) ;
#282 = PRESENTATION_STYLE_ASSIGNMENT (( #193 ) ) ;
#283 = ORIENTED_EDGE ( 'NONE', *, *, #123, .T. ) ;
#284 = ORIENTED_EDGE ( 'NONE', *, *, #311, .F. ) ;
#285 = FILL_AREA_STYLE ('',( #252 ) ) ;
#286 = CIRCLE ( 'NONE', #102, 20.00000000000000000 ) ;
#287 = DIRECTION ( 'NONE',  ( 0.000000000000000000, 0.000000000000000000, -1.000000000000000000 ) ) ;
#288 = FACE_OUTER_BOUND ( 'NONE', #140, .T. ) ;
#289 = AXIS2_PLACEMENT_3D ( 'NONE', #259, #339, #125 ) ;
#290 = EDGE_CURVE ( 'NONE', #256, #170, #302, .T. ) ;
#291 = ORIENTED_EDGE ( 'NONE', *, *, #311, .T. ) ;
#292 = AXIS2_PLACEMENT_3D ( 'NONE', #186, #300, #305 ) ;
#293 = ORIENTED_EDGE ( 'NONE', *, *, #278, .T. ) ;
#294 = DIRECTION ( 'NONE',  ( 1.000000000000000000, 0.000000000000000000, 0.000000000000000000 ) ) ;
#295 = DIRECTION ( 'NONE',  ( -0.000000000000000000, -1.000000000000000000, -0.000000000000000000 ) ) ;
#296 = DIRECTION ( 'NONE',  ( -0.000000000000000000, -1.000000000000000000, -0.000000000000000000 ) ) ;
#297 = FACE_OUTER_BOUND ( 'NONE', #89, .T. ) ;
#298 = DIRECTION ( 'NONE',  ( -0.000000000000000000, -1.000000000000000000, -0.000000000000000000 ) ) ;
#299 = DIRECTION ( 'NONE',  ( 1.000000000000000000, 0.000000000000000000, -1.224646799147353207E-16 ) ) ;
#300 = DIRECTION ( 'NONE',  ( -0.000000000000000000, -1.000000000000000000, -0.000000000000000000 ) ) ;
#301 = CYLINDRICAL_SURFACE ( 'NONE', #105, 9.250000000000001776 ) ;
#302 = CIRCLE ( 'NONE', #335, 20.00000000000000000 ) ;
#303 = DIRECTION ( 'NONE',  ( 0.000000000000000000, 0.000000000000000000, -1.000000000000000000 ) ) ;
#304 = AXIS2_PLACEMENT_3D ( 'NONE', #47, #215, #126 ) ;
#305 = DIRECTION ( 'NONE',  ( 0.000000000000000000, 0.000000000000000000, -1.000000000000000000 ) ) ;
#306 = VERTEX_POINT ( 'NONE', #106 ) ;
#307 = AXIS2_PLACEMENT_3D ( 'NONE', #72, #295, #76 ) ;
#308 = AXIS2_PLACEMENT_3D ( 'NONE', #56, #183, #218 ) ;
#309 = UNCERTAINTY_MEASURE_WITH_UNIT (LENGTH_MEASURE( 1.000000000000000082E-05 ), #330, 'distance_accuracy_value', 'NONE');
#310 = ORIENTED_EDGE ( 'NONE', *, *, #46, .F. ) ;
#311 = EDGE_CURVE ( 'NONE', #59, #8, #191, .T. ) ;
#312 = CARTESIAN_POINT ( 'NONE',  ( 0.000000000000000000, 10.00000000000000000, 0.000000000000000000 ) ) ;
#313 = EDGE_CURVE ( 'NONE', #257, #194, #197, .T. ) ;
#314 = ORIENTED_EDGE ( 'NONE', *, *, #280, .T. ) ;
#315 = CARTESIAN_POINT ( 'NONE',  ( 1.255262969126037241E-15, 10.00000000000000000, 10.25000000000000000 ) ) ;
#316 = CIRCLE ( 'NONE', #292, 20.00000000000000000 ) ;
#317 = MANIFOLD_SOLID_BREP ( 'Révolution1', #195 ) ;
#318 = AXIS2_PLACEMENT_3D ( 'NONE', #107, #185, #104 ) ;
#319 = CARTESIAN_POINT ( 'NONE',  ( 1.132798289211301698E-15, 14.83692603327970616, 9.250000000000000000 ) ) ;
#320 = DIRECTION ( 'NONE',  ( -0.000000000000000000, -1.000000000000000000, -0.000000000000000000 ) ) ;
#321 = VECTOR ( 'NONE', #353, 1000.000000000000000 ) ;
#322 = CARTESIAN_POINT ( 'NONE',  ( 2.449293598294706513E-15, 0.000000000000000000, 20.00000000000000000 ) ) ;
#323 = CARTESIAN_POINT ( 'NONE',  ( 1.255262969126037241E-15, 12.00000000000000000, 10.25000000000000000 ) ) ;
#324 = CYLINDRICAL_SURFACE ( 'NONE', #307, 20.00000000000000000 ) ;
#325 = CARTESIAN_POINT ( 'NONE',  ( 0.000000000000000000, 11.52575694955840291, -20.00000000000000000 ) ) ;
#326 = EDGE_CURVE ( 'NONE', #30, #196, #316, .T. ) ;
#327 = FACE_OUTER_BOUND ( 'NONE', #84, .T. ) ;
#328 = FACE_BOUND ( 'NONE', #11, .T. ) ;
#329 = DIRECTION ( 'NONE',  ( 1.000000000000000000, 0.000000000000000000, 0.000000000000000000 ) ) ;
#330 =( LENGTH_UNIT ( ) NAMED_UNIT ( * ) SI_UNIT ( .MILLI., .METRE. ) );
#331 = ORIENTED_EDGE ( 'NONE', *, *, #17, .T. ) ;
#332 = CIRCLE ( 'NONE', #318, 10.25000000000000000 ) ;
#333 = CARTESIAN_POINT ( 'NONE',  ( 0.000000000000000000, 0.000000000000000000, 0.000000000000000000 ) ) ;
#334 = CIRCLE ( 'NONE', #181, 9.250000000000001776 ) ;
#335 = AXIS2_PLACEMENT_3D ( 'NONE', #349, #351, #245 ) ;
#336 = ORIENTED_EDGE ( 'NONE', *, *, #280, .F. ) ;
#337 = PRODUCT_CONTEXT ( 'NONE', #172, 'mechanical' ) ;
#338 = ORIENTED_EDGE ( 'NONE', *, *, #68, .F. ) ;
#339 = DIRECTION ( 'NONE',  ( -0.000000000000000000, -1.000000000000000000, -0.000000000000000000 ) ) ;
#340 = UNCERTAINTY_MEASURE_WITH_UNIT (LENGTH_MEASURE( 1.000000000000000082E-05 ), #29, 'distance_accuracy_value', 'NONE');
#341 = VERTEX_POINT ( 'NONE', #325 ) ;
#342 = ORIENTED_EDGE ( 'NONE', *, *, #61, .T. ) ;
#343 = AXIS2_PLACEMENT_3D ( 'NONE', #22, #296, #158 ) ;
#344 = CARTESIAN_POINT ( 'NONE',  ( 0.000000000000000000, 12.00000000000000000, 0.000000000000000000 ) ) ;
#345 = CARTESIAN_POINT ( 'NONE',  ( 0.000000000000000000, 14.83692603327970616, 0.000000000000000000 ) ) ;
#346 = AXIS2_PLACEMENT_3D ( 'NONE', #18, #2, #113 ) ;
#347 = CARTESIAN_POINT ( 'NONE',  ( 10.25000000000000000, 12.00000000000000000, 0.000000000000000000 ) ) ;
#348 = DIRECTION ( 'NONE',  ( -0.000000000000000000, -1.000000000000000000, -0.000000000000000000 ) ) ;
#349 = CARTESIAN_POINT ( 'NONE',  ( 0.000000000000000000, 10.00000000000000000, 0.000000000000000000 ) ) ;
#350 = CARTESIAN_POINT ( 'NONE',  ( 1.255262969126037241E-15, 0.000000000000000000, 10.25000000000000000 ) ) ;
#351 = DIRECTION ( 'NONE',  ( -0.000000000000000000, -1.000000000000000000, -0.000000000000000000 ) ) ;
#352 = CIRCLE ( 'NONE', #272, 9.250000000000000000 ) ;
#353 = DIRECTION ( 'NONE',  ( -0.000000000000000000, -1.000000000000000000, -0.000000000000000000 ) ) ;
#354 = PLANE ( 'NONE',  #233 ) ;
#355 = DIRECTION ( 'NONE',  ( -0.000000000000000000, -1.000000000000000000, -0.000000000000000000 ) ) ;
#356 = PRESENTATION_STYLE_ASSIGNMENT (( #216 ) ) ;
ENDSEC;
END-ISO-10303-21;
