ISO-10303-21;
HEADER;
/* Generated by software containing ST-Developer
 * from STEP Tools, Inc. (www.steptools.com) 
 */

FILE_DESCRIPTION(
/* description */ (''),
/* implementation_level */ '2;1');

FILE_NAME(
/* name */ 'hexagone morceau 2.step',
/* time_stamp */ '2022-11-27T22:43:38+01:00',
/* author */ (''),
/* organization */ (''),
/* preprocessor_version */ 'ST-DEVELOPER v19.2',
/* originating_system */ 'Autodesk Translation Framework v11.17.0.187',

/* authorisation */ '');

FILE_SCHEMA (('AUTOMOTIVE_DESIGN { 1 0 10303 214 3 1 1 }'));
ENDSEC;

DATA;
#10=MECHANICAL_DESIGN_GEOMETRIC_PRESENTATION_REPRESENTATION('',(#13),#270);
#11=SHAPE_REPRESENTATION_RELATIONSHIP('SRR','None',#276,#12);
#12=ADVANCED_BREP_SHAPE_REPRESENTATION('',(#14),#269);
#13=STYLED_ITEM('',(#285),#14);
#14=MANIFOLD_SOLID_BREP('Corps458',#170);
#15=FACE_OUTER_BOUND('',#24,.T.);
#16=FACE_OUTER_BOUND('',#25,.T.);
#17=FACE_OUTER_BOUND('',#26,.T.);
#18=FACE_OUTER_BOUND('',#27,.T.);
#19=FACE_OUTER_BOUND('',#28,.T.);
#20=FACE_OUTER_BOUND('',#29,.T.);
#21=FACE_OUTER_BOUND('',#30,.T.);
#22=FACE_OUTER_BOUND('',#31,.T.);
#23=FACE_OUTER_BOUND('',#32,.T.);
#24=EDGE_LOOP('',(#110,#111,#112,#113));
#25=EDGE_LOOP('',(#114,#115,#116,#117));
#26=EDGE_LOOP('',(#118,#119,#120,#121));
#27=EDGE_LOOP('',(#122,#123,#124,#125));
#28=EDGE_LOOP('',(#126,#127,#128,#129,#130,#131,#132));
#29=EDGE_LOOP('',(#133,#134,#135,#136));
#30=EDGE_LOOP('',(#137,#138,#139,#140,#141,#142,#143));
#31=EDGE_LOOP('',(#144,#145,#146,#147));
#32=EDGE_LOOP('',(#148,#149,#150,#151));
#33=LINE('',#226,#54);
#34=LINE('',#228,#55);
#35=LINE('',#230,#56);
#36=LINE('',#231,#57);
#37=LINE('',#235,#58);
#38=LINE('',#236,#59);
#39=LINE('',#237,#60);
#40=LINE('',#241,#61);
#41=LINE('',#243,#62);
#42=LINE('',#245,#63);
#43=LINE('',#246,#64);
#44=LINE('',#250,#65);
#45=LINE('',#251,#66);
#46=LINE('',#252,#67);
#47=LINE('',#255,#68);
#48=LINE('',#256,#69);
#49=LINE('',#257,#70);
#50=LINE('',#259,#71);
#51=LINE('',#262,#72);
#52=LINE('',#263,#73);
#53=LINE('',#265,#74);
#54=VECTOR('',#185,10.);
#55=VECTOR('',#186,10.);
#56=VECTOR('',#187,10.);
#57=VECTOR('',#188,10.);
#58=VECTOR('',#191,10.);
#59=VECTOR('',#192,10.);
#60=VECTOR('',#193,10.);
#61=VECTOR('',#196,10.);
#62=VECTOR('',#197,10.);
#63=VECTOR('',#198,10.);
#64=VECTOR('',#199,10.);
#65=VECTOR('',#202,10.);
#66=VECTOR('',#203,10.);
#67=VECTOR('',#204,10.);
#68=VECTOR('',#207,10.);
#69=VECTOR('',#208,10.);
#70=VECTOR('',#209,10.);
#71=VECTOR('',#212,10.);
#72=VECTOR('',#215,10.);
#73=VECTOR('',#216,10.);
#74=VECTOR('',#219,10.);
#75=VERTEX_POINT('',#224);
#76=VERTEX_POINT('',#225);
#77=VERTEX_POINT('',#227);
#78=VERTEX_POINT('',#229);
#79=VERTEX_POINT('',#233);
#80=VERTEX_POINT('',#234);
#81=VERTEX_POINT('',#239);
#82=VERTEX_POINT('',#240);
#83=VERTEX_POINT('',#242);
#84=VERTEX_POINT('',#244);
#85=VERTEX_POINT('',#248);
#86=VERTEX_POINT('',#249);
#87=VERTEX_POINT('',#254);
#88=VERTEX_POINT('',#261);
#89=EDGE_CURVE('',#75,#76,#33,.F.);
#90=EDGE_CURVE('',#75,#77,#34,.T.);
#91=EDGE_CURVE('',#78,#77,#35,.T.);
#92=EDGE_CURVE('',#76,#78,#36,.T.);
#93=EDGE_CURVE('',#79,#80,#37,.T.);
#94=EDGE_CURVE('',#77,#80,#38,.T.);
#95=EDGE_CURVE('',#79,#75,#39,.F.);
#96=EDGE_CURVE('',#81,#82,#40,.T.);
#97=EDGE_CURVE('',#83,#81,#41,.F.);
#98=EDGE_CURVE('',#84,#83,#42,.T.);
#99=EDGE_CURVE('',#84,#82,#43,.F.);
#100=EDGE_CURVE('',#85,#86,#44,.T.);
#101=EDGE_CURVE('',#86,#84,#45,.F.);
#102=EDGE_CURVE('',#85,#83,#46,.F.);
#103=EDGE_CURVE('',#87,#81,#47,.T.);
#104=EDGE_CURVE('',#87,#78,#48,.T.);
#105=EDGE_CURVE('',#80,#85,#49,.T.);
#106=EDGE_CURVE('',#86,#79,#50,.T.);
#107=EDGE_CURVE('',#82,#88,#51,.T.);
#108=EDGE_CURVE('',#76,#88,#52,.F.);
#109=EDGE_CURVE('',#88,#87,#53,.T.);
#110=ORIENTED_EDGE('',*,*,#89,.F.);
#111=ORIENTED_EDGE('',*,*,#90,.T.);
#112=ORIENTED_EDGE('',*,*,#91,.F.);
#113=ORIENTED_EDGE('',*,*,#92,.F.);
#114=ORIENTED_EDGE('',*,*,#93,.T.);
#115=ORIENTED_EDGE('',*,*,#94,.F.);
#116=ORIENTED_EDGE('',*,*,#90,.F.);
#117=ORIENTED_EDGE('',*,*,#95,.F.);
#118=ORIENTED_EDGE('',*,*,#96,.F.);
#119=ORIENTED_EDGE('',*,*,#97,.F.);
#120=ORIENTED_EDGE('',*,*,#98,.F.);
#121=ORIENTED_EDGE('',*,*,#99,.T.);
#122=ORIENTED_EDGE('',*,*,#100,.T.);
#123=ORIENTED_EDGE('',*,*,#101,.T.);
#124=ORIENTED_EDGE('',*,*,#98,.T.);
#125=ORIENTED_EDGE('',*,*,#102,.F.);
#126=ORIENTED_EDGE('',*,*,#103,.F.);
#127=ORIENTED_EDGE('',*,*,#104,.T.);
#128=ORIENTED_EDGE('',*,*,#91,.T.);
#129=ORIENTED_EDGE('',*,*,#94,.T.);
#130=ORIENTED_EDGE('',*,*,#105,.T.);
#131=ORIENTED_EDGE('',*,*,#102,.T.);
#132=ORIENTED_EDGE('',*,*,#97,.T.);
#133=ORIENTED_EDGE('',*,*,#106,.F.);
#134=ORIENTED_EDGE('',*,*,#100,.F.);
#135=ORIENTED_EDGE('',*,*,#105,.F.);
#136=ORIENTED_EDGE('',*,*,#93,.F.);
#137=ORIENTED_EDGE('',*,*,#107,.F.);
#138=ORIENTED_EDGE('',*,*,#99,.F.);
#139=ORIENTED_EDGE('',*,*,#101,.F.);
#140=ORIENTED_EDGE('',*,*,#106,.T.);
#141=ORIENTED_EDGE('',*,*,#95,.T.);
#142=ORIENTED_EDGE('',*,*,#89,.T.);
#143=ORIENTED_EDGE('',*,*,#108,.T.);
#144=ORIENTED_EDGE('',*,*,#109,.F.);
#145=ORIENTED_EDGE('',*,*,#108,.F.);
#146=ORIENTED_EDGE('',*,*,#92,.T.);
#147=ORIENTED_EDGE('',*,*,#104,.F.);
#148=ORIENTED_EDGE('',*,*,#107,.T.);
#149=ORIENTED_EDGE('',*,*,#109,.T.);
#150=ORIENTED_EDGE('',*,*,#103,.T.);
#151=ORIENTED_EDGE('',*,*,#96,.T.);
#152=PLANE('',#172);
#153=PLANE('',#173);
#154=PLANE('',#174);
#155=PLANE('',#175);
#156=PLANE('',#176);
#157=PLANE('',#177);
#158=PLANE('',#178);
#159=PLANE('',#179);
#160=PLANE('',#180);
#161=ADVANCED_FACE('',(#15),#152,.F.);
#162=ADVANCED_FACE('',(#16),#153,.F.);
#163=ADVANCED_FACE('',(#17),#154,.T.);
#164=ADVANCED_FACE('',(#18),#155,.T.);
#165=ADVANCED_FACE('',(#19),#156,.T.);
#166=ADVANCED_FACE('',(#20),#157,.F.);
#167=ADVANCED_FACE('',(#21),#158,.F.);
#168=ADVANCED_FACE('',(#22),#159,.F.);
#169=ADVANCED_FACE('',(#23),#160,.T.);
#170=CLOSED_SHELL('',(#161,#162,#163,#164,#165,#166,#167,#168,#169));
#171=AXIS2_PLACEMENT_3D('placement',#222,#181,#182);
#172=AXIS2_PLACEMENT_3D('',#223,#183,#184);
#173=AXIS2_PLACEMENT_3D('',#232,#189,#190);
#174=AXIS2_PLACEMENT_3D('',#238,#194,#195);
#175=AXIS2_PLACEMENT_3D('',#247,#200,#201);
#176=AXIS2_PLACEMENT_3D('',#253,#205,#206);
#177=AXIS2_PLACEMENT_3D('',#258,#210,#211);
#178=AXIS2_PLACEMENT_3D('',#260,#213,#214);
#179=AXIS2_PLACEMENT_3D('',#264,#217,#218);
#180=AXIS2_PLACEMENT_3D('',#266,#220,#221);
#181=DIRECTION('axis',(0.,0.,1.));
#182=DIRECTION('refdir',(1.,0.,0.));
#183=DIRECTION('center_axis',(-0.000251269021895095,-0.999999968431939,
0.));
#184=DIRECTION('ref_axis',(-0.999999968431939,0.000251269021895095,0.));
#185=DIRECTION('',(0.999999968431939,-0.000251269021895095,0.));
#186=DIRECTION('',(0.,0.,-1.));
#187=DIRECTION('',(0.999999968431939,-0.000251269021895095,0.));
#188=DIRECTION('',(0.,0.,-1.));
#189=DIRECTION('center_axis',(0.499927093733802,-0.866067492145315,0.));
#190=DIRECTION('ref_axis',(-0.866067492145315,-0.499927093733802,0.));
#191=DIRECTION('',(0.,0.,-1.));
#192=DIRECTION('',(0.866067492145315,0.499927093733802,0.));
#193=DIRECTION('',(0.866067492145315,0.499927093733802,0.));
#194=DIRECTION('center_axis',(-0.500074010793903,-0.865982669415791,0.));
#195=DIRECTION('ref_axis',(-0.865982669415791,0.500074010793903,0.));
#196=DIRECTION('',(0.,0.,1.));
#197=DIRECTION('',(0.865982669415791,-0.500074010793903,0.));
#198=DIRECTION('',(0.,0.,-1.));
#199=DIRECTION('',(0.865982669415791,-0.500074010793903,0.));
#200=DIRECTION('center_axis',(-0.000251269021895095,-0.999999968431939,
0.));
#201=DIRECTION('ref_axis',(-0.999999968431939,0.000251269021895095,0.));
#202=DIRECTION('',(0.,0.,1.));
#203=DIRECTION('',(0.999999968431939,-0.000251269021895095,0.));
#204=DIRECTION('',(0.999999968431939,-0.000251269021895095,0.));
#205=DIRECTION('center_axis',(0.,0.,-1.));
#206=DIRECTION('ref_axis',(-0.965925826289068,-0.258819045102521,0.));
#207=DIRECTION('',(-0.707167209655316,-0.707046347553196,0.));
#208=DIRECTION('',(0.865982669415791,-0.500074010793903,0.));
#209=DIRECTION('',(0.258597979886745,-0.965985033423652,0.));
#210=DIRECTION('center_axis',(-0.965985033423652,-0.258597979886745,0.));
#211=DIRECTION('ref_axis',(0.,0.,1.));
#212=DIRECTION('',(-0.258597979886745,0.965985033423652,0.));
#213=DIRECTION('center_axis',(0.,0.,-1.));
#214=DIRECTION('ref_axis',(0.965925826289068,0.258819045102521,0.));
#215=DIRECTION('',(0.707167209655316,0.707046347553196,0.));
#216=DIRECTION('',(0.865982669415791,-0.500074010793903,0.));
#217=DIRECTION('center_axis',(-0.500074010793903,-0.865982669415791,0.));
#218=DIRECTION('ref_axis',(-0.865982669415791,0.500074010793903,0.));
#219=DIRECTION('',(0.,0.,-1.));
#220=DIRECTION('center_axis',(-0.707046347553196,0.707167209655316,0.));
#221=DIRECTION('ref_axis',(0.,0.,1.));
#222=CARTESIAN_POINT('',(0.,0.,0.));
#223=CARTESIAN_POINT('Origin',(116.469826641244,-429.666621987921,1920.));
#224=CARTESIAN_POINT('',(115.129633005341,-429.666285238766,1920.));
#225=CARTESIAN_POINT('',(-115.054900976329,-429.608446994232,1920.));
#226=CARTESIAN_POINT('',(58.2345141259468,-429.651989257444,1920.));
#227=CARTESIAN_POINT('',(115.129633005341,-429.666285238766,1900.));
#228=CARTESIAN_POINT('',(115.129633005341,-429.666285238766,1920.));
#229=CARTESIAN_POINT('',(-115.054900976329,-429.608446994232,1900.));
#230=CARTESIAN_POINT('',(58.2345141259468,-429.651989257444,1900.));
#231=CARTESIAN_POINT('',(-115.054900976329,-429.608446994232,1920.));
#232=CARTESIAN_POINT('Origin',(315.644837912033,-313.921283206499,1920.));
#233=CARTESIAN_POINT('',(115.130533658079,-429.665765347754,1920.));
#234=CARTESIAN_POINT('',(115.130533658079,-429.665765347754,1900.));
#235=CARTESIAN_POINT('',(115.130533658079,-429.665765347754,1915.));
#236=CARTESIAN_POINT('',(265.242839794956,-343.015233349612,1900.));
#237=CARTESIAN_POINT('',(265.242839794956,-343.015233349612,1920.));
#238=CARTESIAN_POINT('Origin',(-123.896569135612,-447.597850352601,1920.));
#239=CARTESIAN_POINT('',(-328.970549451821,-329.174963304088,1900.));
#240=CARTESIAN_POINT('',(-328.970549451821,-329.174963304088,1920.));
#241=CARTESIAN_POINT('',(-328.970549451821,-329.174963304088,1915.));
#242=CARTESIAN_POINT('',(-120.417132965828,-449.607100262763,1900.));
#243=CARTESIAN_POINT('',(-174.293906179305,-418.49519118995,1900.));
#244=CARTESIAN_POINT('',(-120.417132965828,-449.607100262763,1920.));
#245=CARTESIAN_POINT('',(-120.417132965828,-449.607100262763,1920.));
#246=CARTESIAN_POINT('',(-174.293906179305,-418.49519118995,1920.));
#247=CARTESIAN_POINT('Origin',(116.464801260806,-449.66662135656,1920.));
#248=CARTESIAN_POINT('',(120.485111639403,-449.667631536048,1900.));
#249=CARTESIAN_POINT('',(120.485111639403,-449.667631536048,1920.));
#250=CARTESIAN_POINT('',(120.485111639402,-449.667631536048,1915.));
#251=CARTESIAN_POINT('',(58.2294887455089,-449.651988626083,1920.));
#252=CARTESIAN_POINT('',(58.2294887455089,-449.651988626083,1900.));
#253=CARTESIAN_POINT('Origin',(0.107129245074658,-0.107165324934352,1900.));
#254=CARTESIAN_POINT('',(-314.328282097357,-314.535198462733,1900.));
#255=CARTESIAN_POINT('',(0.130310254480439,-0.130350297534904,1900.));
#256=CARTESIAN_POINT('',(-164.292425963427,-401.175537801634,1900.));
#257=CARTESIAN_POINT('',(0.134081142958108,-0.0999501968718654,1900.));
#258=CARTESIAN_POINT('Origin',(0.134081143119519,-0.0999501974748112,1910.));
#259=CARTESIAN_POINT('',(0.134081142958108,-0.0999501968718654,1920.));
#260=CARTESIAN_POINT('Origin',(0.107129245074658,-0.107165324934352,1920.));
#261=CARTESIAN_POINT('',(-314.328282097357,-314.535198462733,1920.));
#262=CARTESIAN_POINT('',(0.130310254480439,-0.130350297534904,1920.));
#263=CARTESIAN_POINT('',(-164.292425963427,-401.175537801634,1920.));
#264=CARTESIAN_POINT('Origin',(-113.895088919734,-430.278196964286,1920.));
#265=CARTESIAN_POINT('',(-314.328282097357,-314.535198462733,1915.));
#266=CARTESIAN_POINT('Origin',(0.130310254157362,-0.130350297857927,1910.));
#267=UNCERTAINTY_MEASURE_WITH_UNIT(LENGTH_MEASURE(0.01),#271,
'DISTANCE_ACCURACY_VALUE',
'Maximum model space distance between geometric entities at asserted c
onnectivities');
#268=UNCERTAINTY_MEASURE_WITH_UNIT(LENGTH_MEASURE(0.01),#271,
'DISTANCE_ACCURACY_VALUE',
'Maximum model space distance between geometric entities at asserted c
onnectivities');
#269=(
GEOMETRIC_REPRESENTATION_CONTEXT(3)
GLOBAL_UNCERTAINTY_ASSIGNED_CONTEXT((#267))
GLOBAL_UNIT_ASSIGNED_CONTEXT((#271,#272,#273))
REPRESENTATION_CONTEXT('','3D')
);
#270=(
GEOMETRIC_REPRESENTATION_CONTEXT(3)
GLOBAL_UNCERTAINTY_ASSIGNED_CONTEXT((#268))
GLOBAL_UNIT_ASSIGNED_CONTEXT((#271,#272,#273))
REPRESENTATION_CONTEXT('','3D')
);
#271=(
LENGTH_UNIT()
NAMED_UNIT(*)
SI_UNIT(.MILLI.,.METRE.)
);
#272=(
NAMED_UNIT(*)
PLANE_ANGLE_UNIT()
SI_UNIT($,.RADIAN.)
);
#273=(
NAMED_UNIT(*)
SI_UNIT($,.STERADIAN.)
SOLID_ANGLE_UNIT()
);
#274=SHAPE_DEFINITION_REPRESENTATION(#275,#276);
#275=PRODUCT_DEFINITION_SHAPE('',$,#278);
#276=SHAPE_REPRESENTATION('',(#171),#269);
#277=PRODUCT_DEFINITION_CONTEXT('part definition',#282,'design');
#278=PRODUCT_DEFINITION('imprimante v2','imprimante v2 v26',#279,#277);
#279=PRODUCT_DEFINITION_FORMATION('',$,#284);
#280=PRODUCT_RELATED_PRODUCT_CATEGORY('imprimante v2 v26',
'imprimante v2 v26',(#284));
#281=APPLICATION_PROTOCOL_DEFINITION('international standard',
'automotive_design',2009,#282);
#282=APPLICATION_CONTEXT(
'Core Data for Automotive Mechanical Design Process');
#283=PRODUCT_CONTEXT('part definition',#282,'mechanical');
#284=PRODUCT('imprimante v2','imprimante v2 v26',$,(#283));
#285=PRESENTATION_STYLE_ASSIGNMENT((#293));
#286=PRESENTATION_STYLE_ASSIGNMENT((#294));
#287=PRESENTATION_STYLE_ASSIGNMENT((#295));
#288=PRESENTATION_STYLE_ASSIGNMENT((#296));
#289=PRESENTATION_STYLE_ASSIGNMENT((#297));
#290=PRESENTATION_STYLE_ASSIGNMENT((#298));
#291=PRESENTATION_STYLE_ASSIGNMENT((#299));
#292=PRESENTATION_STYLE_ASSIGNMENT((#300));
#293=SURFACE_STYLE_USAGE(.BOTH.,#301);
#294=SURFACE_STYLE_USAGE(.BOTH.,#302);
#295=SURFACE_STYLE_USAGE(.BOTH.,#303);
#296=SURFACE_STYLE_USAGE(.BOTH.,#304);
#297=SURFACE_STYLE_USAGE(.BOTH.,#305);
#298=SURFACE_STYLE_USAGE(.BOTH.,#306);
#299=SURFACE_STYLE_USAGE(.BOTH.,#307);
#300=SURFACE_STYLE_USAGE(.BOTH.,#308);
#301=SURFACE_SIDE_STYLE('',(#309));
#302=SURFACE_SIDE_STYLE('',(#310));
#303=SURFACE_SIDE_STYLE('',(#311));
#304=SURFACE_SIDE_STYLE('',(#312));
#305=SURFACE_SIDE_STYLE('',(#313));
#306=SURFACE_SIDE_STYLE('',(#314));
#307=SURFACE_SIDE_STYLE('',(#315));
#308=SURFACE_SIDE_STYLE('',(#316));
#309=SURFACE_STYLE_FILL_AREA(#317);
#310=SURFACE_STYLE_FILL_AREA(#318);
#311=SURFACE_STYLE_FILL_AREA(#319);
#312=SURFACE_STYLE_FILL_AREA(#320);
#313=SURFACE_STYLE_FILL_AREA(#321);
#314=SURFACE_STYLE_FILL_AREA(#322);
#315=SURFACE_STYLE_FILL_AREA(#323);
#316=SURFACE_STYLE_FILL_AREA(#324);
#317=FILL_AREA_STYLE('Acier - Satin\X\E9',(#325));
#318=FILL_AREA_STYLE('Aluminium - Anodis\X\E9 rugueux (gris)',(#326));
#319=FILL_AREA_STYLE('Aluminium - Poli',(#327));
#320=FILL_AREA_STYLE(
'HP 3D HR CB PA 12 (avec imprimante 3D en couleurs HP Jet Fusion 580)',
(#328));
#321=FILL_AREA_STYLE('ABS (blanc)',(#329));
#322=FILL_AREA_STYLE('Peinture - M\X\E9tallis\X\E9e (vert)',(#330));
#323=FILL_AREA_STYLE('Peinture - M\X\E9tallis\X\E9e (argent)',(#331));
#324=FILL_AREA_STYLE('Nylon 12 (avec l''imprimante 3D Formlabs Fuse 1)',
(#332));
#325=FILL_AREA_STYLE_COLOUR('Acier - Satin\X\E9',#333);
#326=FILL_AREA_STYLE_COLOUR('Aluminium - Anodis\X\E9 rugueux (gris)',#334);
#327=FILL_AREA_STYLE_COLOUR('Aluminium - Poli',#335);
#328=FILL_AREA_STYLE_COLOUR(
'HP 3D HR CB PA 12 (avec imprimante 3D en couleurs HP Jet Fusion 580)',
#336);
#329=FILL_AREA_STYLE_COLOUR('ABS (blanc)',#337);
#330=FILL_AREA_STYLE_COLOUR('Peinture - M\X\E9tallis\X\E9e (vert)',#338);
#331=FILL_AREA_STYLE_COLOUR('Peinture - M\X\E9tallis\X\E9e (argent)',#339);
#332=FILL_AREA_STYLE_COLOUR(
'Nylon 12 (avec l''imprimante 3D Formlabs Fuse 1)',#340);
#333=COLOUR_RGB('Acier - Satin\X\E9',0.627450980392157,0.627450980392157,
0.627450980392157);
#334=COLOUR_RGB('Aluminium - Anodis\X\E9 rugueux (gris)',0.537254901960784,
0.537254901960784,0.537254901960784);
#335=COLOUR_RGB('Aluminium - Poli',0.96078431372549,0.96078431372549,0.964705882352941);
#336=COLOUR_RGB(
'HP 3D HR CB PA 12 (avec imprimante 3D en couleurs HP Jet Fusion 580)',
0.964705882352941,0.964705882352941,0.952941176470588);
#337=COLOUR_RGB('ABS (blanc)',0.964705882352941,0.964705882352941,0.952941176470588);
#338=COLOUR_RGB('Peinture - M\X\E9tallis\X\E9e (vert)',0.266666666666667,
0.588235294117647,0.282352941176471);
#339=COLOUR_RGB('Peinture - M\X\E9tallis\X\E9e (argent)',0.984313725490196,
0.980392156862745,0.96078431372549);
#340=COLOUR_RGB('Nylon 12 (avec l''imprimante 3D Formlabs Fuse 1)',0.247058823529412,
0.247058823529412,0.247058823529412);
ENDSEC;
END-ISO-10303-21;
