ISO-10303-21;
HEADER;
/* Generated by software containing ST-Developer
 * from STEP Tools, Inc. (www.steptools.com) 
 */

FILE_DESCRIPTION(
/* description */ (''),
/* implementation_level */ '2;1');

FILE_NAME(
/* name */ 'Case.step',
/* time_stamp */ '2023-03-06T20:07:41+01:00',
/* author */ (''),
/* organization */ (''),
/* preprocessor_version */ 'ST-DEVELOPER v19.2',
/* originating_system */ 'Autodesk Translation Framework v11.17.0.187',

/* authorisation */ '');

FILE_SCHEMA (('AUTOMOTIVE_DESIGN { 1 0 10303 214 3 1 1 }'));
ENDSEC;

DATA;
#10=MECHANICAL_DESIGN_GEOMETRIC_PRESENTATION_REPRESENTATION('',(#13),#395);
#11=SHAPE_REPRESENTATION_RELATIONSHIP('SRR','None',#402,#12);
#12=ADVANCED_BREP_SHAPE_REPRESENTATION('',(#14),#394);
#13=STYLED_ITEM('',(#412),#14);
#14=MANIFOLD_SOLID_BREP('Corps1',#215);
#15=FACE_BOUND('',#49,.T.);
#16=FACE_BOUND('',#52,.T.);
#17=FACE_BOUND('',#55,.T.);
#18=FACE_BOUND('',#58,.T.);
#19=FACE_BOUND('',#61,.T.);
#20=FACE_BOUND('',#64,.T.);
#21=FACE_BOUND('',#67,.T.);
#22=FACE_BOUND('',#70,.T.);
#23=PLANE('',#232);
#24=PLANE('',#236);
#25=PLANE('',#240);
#26=PLANE('',#244);
#27=PLANE('',#248);
#28=PLANE('',#252);
#29=PLANE('',#256);
#30=PLANE('',#260);
#31=FACE_OUTER_BOUND('',#47,.T.);
#32=FACE_OUTER_BOUND('',#48,.T.);
#33=FACE_OUTER_BOUND('',#50,.T.);
#34=FACE_OUTER_BOUND('',#51,.T.);
#35=FACE_OUTER_BOUND('',#53,.T.);
#36=FACE_OUTER_BOUND('',#54,.T.);
#37=FACE_OUTER_BOUND('',#56,.T.);
#38=FACE_OUTER_BOUND('',#57,.T.);
#39=FACE_OUTER_BOUND('',#59,.T.);
#40=FACE_OUTER_BOUND('',#60,.T.);
#41=FACE_OUTER_BOUND('',#62,.T.);
#42=FACE_OUTER_BOUND('',#63,.T.);
#43=FACE_OUTER_BOUND('',#65,.T.);
#44=FACE_OUTER_BOUND('',#66,.T.);
#45=FACE_OUTER_BOUND('',#68,.T.);
#46=FACE_OUTER_BOUND('',#69,.T.);
#47=EDGE_LOOP('',(#143,#144,#145,#146));
#48=EDGE_LOOP('',(#147));
#49=EDGE_LOOP('',(#148));
#50=EDGE_LOOP('',(#149,#150,#151,#152));
#51=EDGE_LOOP('',(#153));
#52=EDGE_LOOP('',(#154));
#53=EDGE_LOOP('',(#155,#156,#157,#158));
#54=EDGE_LOOP('',(#159));
#55=EDGE_LOOP('',(#160));
#56=EDGE_LOOP('',(#161,#162,#163,#164));
#57=EDGE_LOOP('',(#165));
#58=EDGE_LOOP('',(#166));
#59=EDGE_LOOP('',(#167,#168,#169,#170));
#60=EDGE_LOOP('',(#171));
#61=EDGE_LOOP('',(#172));
#62=EDGE_LOOP('',(#173,#174,#175,#176));
#63=EDGE_LOOP('',(#177));
#64=EDGE_LOOP('',(#178));
#65=EDGE_LOOP('',(#179,#180,#181,#182));
#66=EDGE_LOOP('',(#183));
#67=EDGE_LOOP('',(#184));
#68=EDGE_LOOP('',(#185,#186,#187,#188));
#69=EDGE_LOOP('',(#189));
#70=EDGE_LOOP('',(#190));
#71=LINE('',#340,#79);
#72=LINE('',#348,#80);
#73=LINE('',#355,#81);
#74=LINE('',#361,#82);
#75=LINE('',#368,#83);
#76=LINE('',#375,#84);
#77=LINE('',#382,#85);
#78=LINE('',#389,#86);
#79=VECTOR('',#267,32.5000000000051);
#80=VECTOR('',#278,30.999999999998);
#81=VECTOR('',#287,32.4999999999977);
#82=VECTOR('',#294,30.);
#83=VECTOR('',#303,31.5000000000001);
#84=VECTOR('',#312,30.0000000000058);
#85=VECTOR('',#321,31.5000000000115);
#86=VECTOR('',#330,30.0000000000116);
#87=CIRCLE('',#230,32.4999999999985);
#88=CIRCLE('',#231,32.5000000000117);
#89=CIRCLE('',#233,31.0000000000005);
#90=CIRCLE('',#235,30.9999999999955);
#91=CIRCLE('',#237,32.4999999999955);
#92=CIRCLE('',#239,32.5);
#93=CIRCLE('',#241,30.);
#94=CIRCLE('',#243,30.0000000000001);
#95=CIRCLE('',#245,31.5000000000001);
#96=CIRCLE('',#247,31.5000000000002);
#97=CIRCLE('',#249,30.0000000000002);
#98=CIRCLE('',#251,30.0000000000114);
#99=CIRCLE('',#253,31.5000000000114);
#100=CIRCLE('',#255,31.5000000000115);
#101=CIRCLE('',#257,30.0000000000115);
#102=CIRCLE('',#259,30.0000000000117);
#103=VERTEX_POINT('',#337);
#104=VERTEX_POINT('',#339);
#105=VERTEX_POINT('',#343);
#106=VERTEX_POINT('',#346);
#107=VERTEX_POINT('',#350);
#108=VERTEX_POINT('',#353);
#109=VERTEX_POINT('',#357);
#110=VERTEX_POINT('',#360);
#111=VERTEX_POINT('',#364);
#112=VERTEX_POINT('',#367);
#113=VERTEX_POINT('',#371);
#114=VERTEX_POINT('',#374);
#115=VERTEX_POINT('',#378);
#116=VERTEX_POINT('',#381);
#117=VERTEX_POINT('',#385);
#118=VERTEX_POINT('',#388);
#119=EDGE_CURVE('',#103,#103,#87,.T.);
#120=EDGE_CURVE('',#103,#104,#71,.T.);
#121=EDGE_CURVE('',#104,#104,#88,.T.);
#122=EDGE_CURVE('',#105,#105,#89,.T.);
#123=EDGE_CURVE('',#106,#106,#90,.T.);
#124=EDGE_CURVE('',#106,#105,#72,.T.);
#125=EDGE_CURVE('',#107,#107,#91,.T.);
#126=EDGE_CURVE('',#108,#108,#92,.T.);
#127=EDGE_CURVE('',#108,#107,#73,.T.);
#128=EDGE_CURVE('',#109,#109,#93,.T.);
#129=EDGE_CURVE('',#109,#110,#74,.T.);
#130=EDGE_CURVE('',#110,#110,#94,.T.);
#131=EDGE_CURVE('',#111,#111,#95,.T.);
#132=EDGE_CURVE('',#111,#112,#75,.T.);
#133=EDGE_CURVE('',#112,#112,#96,.T.);
#134=EDGE_CURVE('',#113,#113,#97,.T.);
#135=EDGE_CURVE('',#113,#114,#76,.T.);
#136=EDGE_CURVE('',#114,#114,#98,.T.);
#137=EDGE_CURVE('',#115,#115,#99,.T.);
#138=EDGE_CURVE('',#115,#116,#77,.T.);
#139=EDGE_CURVE('',#116,#116,#100,.T.);
#140=EDGE_CURVE('',#117,#117,#101,.T.);
#141=EDGE_CURVE('',#117,#118,#78,.T.);
#142=EDGE_CURVE('',#118,#118,#102,.T.);
#143=ORIENTED_EDGE('',*,*,#119,.F.);
#144=ORIENTED_EDGE('',*,*,#120,.T.);
#145=ORIENTED_EDGE('',*,*,#121,.T.);
#146=ORIENTED_EDGE('',*,*,#120,.F.);
#147=ORIENTED_EDGE('',*,*,#119,.T.);
#148=ORIENTED_EDGE('',*,*,#122,.F.);
#149=ORIENTED_EDGE('',*,*,#123,.F.);
#150=ORIENTED_EDGE('',*,*,#124,.T.);
#151=ORIENTED_EDGE('',*,*,#122,.T.);
#152=ORIENTED_EDGE('',*,*,#124,.F.);
#153=ORIENTED_EDGE('',*,*,#125,.F.);
#154=ORIENTED_EDGE('',*,*,#123,.T.);
#155=ORIENTED_EDGE('',*,*,#126,.F.);
#156=ORIENTED_EDGE('',*,*,#127,.T.);
#157=ORIENTED_EDGE('',*,*,#125,.T.);
#158=ORIENTED_EDGE('',*,*,#127,.F.);
#159=ORIENTED_EDGE('',*,*,#126,.T.);
#160=ORIENTED_EDGE('',*,*,#128,.F.);
#161=ORIENTED_EDGE('',*,*,#128,.T.);
#162=ORIENTED_EDGE('',*,*,#129,.T.);
#163=ORIENTED_EDGE('',*,*,#130,.F.);
#164=ORIENTED_EDGE('',*,*,#129,.F.);
#165=ORIENTED_EDGE('',*,*,#131,.F.);
#166=ORIENTED_EDGE('',*,*,#130,.T.);
#167=ORIENTED_EDGE('',*,*,#131,.T.);
#168=ORIENTED_EDGE('',*,*,#132,.T.);
#169=ORIENTED_EDGE('',*,*,#133,.F.);
#170=ORIENTED_EDGE('',*,*,#132,.F.);
#171=ORIENTED_EDGE('',*,*,#133,.T.);
#172=ORIENTED_EDGE('',*,*,#134,.F.);
#173=ORIENTED_EDGE('',*,*,#134,.T.);
#174=ORIENTED_EDGE('',*,*,#135,.T.);
#175=ORIENTED_EDGE('',*,*,#136,.F.);
#176=ORIENTED_EDGE('',*,*,#135,.F.);
#177=ORIENTED_EDGE('',*,*,#137,.F.);
#178=ORIENTED_EDGE('',*,*,#136,.T.);
#179=ORIENTED_EDGE('',*,*,#137,.T.);
#180=ORIENTED_EDGE('',*,*,#138,.T.);
#181=ORIENTED_EDGE('',*,*,#139,.F.);
#182=ORIENTED_EDGE('',*,*,#138,.F.);
#183=ORIENTED_EDGE('',*,*,#139,.T.);
#184=ORIENTED_EDGE('',*,*,#140,.F.);
#185=ORIENTED_EDGE('',*,*,#140,.T.);
#186=ORIENTED_EDGE('',*,*,#141,.T.);
#187=ORIENTED_EDGE('',*,*,#142,.F.);
#188=ORIENTED_EDGE('',*,*,#141,.F.);
#189=ORIENTED_EDGE('',*,*,#121,.F.);
#190=ORIENTED_EDGE('',*,*,#142,.T.);
#191=CYLINDRICAL_SURFACE('',#229,32.5000000000051);
#192=CYLINDRICAL_SURFACE('',#234,30.999999999998);
#193=CYLINDRICAL_SURFACE('',#238,32.4999999999977);
#194=CYLINDRICAL_SURFACE('',#242,30.);
#195=CYLINDRICAL_SURFACE('',#246,31.5000000000001);
#196=CYLINDRICAL_SURFACE('',#250,30.0000000000058);
#197=CYLINDRICAL_SURFACE('',#254,31.5000000000115);
#198=CYLINDRICAL_SURFACE('',#258,30.0000000000116);
#199=ADVANCED_FACE('',(#31),#191,.T.);
#200=ADVANCED_FACE('',(#32,#15),#23,.T.);
#201=ADVANCED_FACE('',(#33),#192,.T.);
#202=ADVANCED_FACE('',(#34,#16),#24,.T.);
#203=ADVANCED_FACE('',(#35),#193,.T.);
#204=ADVANCED_FACE('',(#36,#17),#25,.T.);
#205=ADVANCED_FACE('',(#37),#194,.F.);
#206=ADVANCED_FACE('',(#38,#18),#26,.T.);
#207=ADVANCED_FACE('',(#39),#195,.F.);
#208=ADVANCED_FACE('',(#40,#19),#27,.T.);
#209=ADVANCED_FACE('',(#41),#196,.F.);
#210=ADVANCED_FACE('',(#42,#20),#28,.T.);
#211=ADVANCED_FACE('',(#43),#197,.F.);
#212=ADVANCED_FACE('',(#44,#21),#29,.T.);
#213=ADVANCED_FACE('',(#45),#198,.F.);
#214=ADVANCED_FACE('',(#46,#22),#30,.T.);
#215=CLOSED_SHELL('',(#199,#200,#201,#202,#203,#204,#205,#206,#207,#208,
#209,#210,#211,#212,#213,#214));
#216=DERIVED_UNIT_ELEMENT(#218,1.);
#217=DERIVED_UNIT_ELEMENT(#397,-3.);
#218=(
MASS_UNIT()
NAMED_UNIT(*)
SI_UNIT(.KILO.,.GRAM.)
);
#219=DERIVED_UNIT((#216,#217));
#220=MEASURE_REPRESENTATION_ITEM('density measure',
POSITIVE_RATIO_MEASURE(8000.),#219);
#221=PROPERTY_DEFINITION_REPRESENTATION(#226,#223);
#222=PROPERTY_DEFINITION_REPRESENTATION(#227,#224);
#223=REPRESENTATION('material name',(#225),#394);
#224=REPRESENTATION('density',(#220),#394);
#225=DESCRIPTIVE_REPRESENTATION_ITEM('Acier inoxydable',
'Acier inoxydable');
#226=PROPERTY_DEFINITION('material property','material name',#404);
#227=PROPERTY_DEFINITION('material property','density of part',#404);
#228=AXIS2_PLACEMENT_3D('placement',#335,#261,#262);
#229=AXIS2_PLACEMENT_3D('',#336,#263,#264);
#230=AXIS2_PLACEMENT_3D('',#338,#265,#266);
#231=AXIS2_PLACEMENT_3D('',#341,#268,#269);
#232=AXIS2_PLACEMENT_3D('',#342,#270,#271);
#233=AXIS2_PLACEMENT_3D('',#344,#272,#273);
#234=AXIS2_PLACEMENT_3D('',#345,#274,#275);
#235=AXIS2_PLACEMENT_3D('',#347,#276,#277);
#236=AXIS2_PLACEMENT_3D('',#349,#279,#280);
#237=AXIS2_PLACEMENT_3D('',#351,#281,#282);
#238=AXIS2_PLACEMENT_3D('',#352,#283,#284);
#239=AXIS2_PLACEMENT_3D('',#354,#285,#286);
#240=AXIS2_PLACEMENT_3D('',#356,#288,#289);
#241=AXIS2_PLACEMENT_3D('',#358,#290,#291);
#242=AXIS2_PLACEMENT_3D('',#359,#292,#293);
#243=AXIS2_PLACEMENT_3D('',#362,#295,#296);
#244=AXIS2_PLACEMENT_3D('',#363,#297,#298);
#245=AXIS2_PLACEMENT_3D('',#365,#299,#300);
#246=AXIS2_PLACEMENT_3D('',#366,#301,#302);
#247=AXIS2_PLACEMENT_3D('',#369,#304,#305);
#248=AXIS2_PLACEMENT_3D('',#370,#306,#307);
#249=AXIS2_PLACEMENT_3D('',#372,#308,#309);
#250=AXIS2_PLACEMENT_3D('',#373,#310,#311);
#251=AXIS2_PLACEMENT_3D('',#376,#313,#314);
#252=AXIS2_PLACEMENT_3D('',#377,#315,#316);
#253=AXIS2_PLACEMENT_3D('',#379,#317,#318);
#254=AXIS2_PLACEMENT_3D('',#380,#319,#320);
#255=AXIS2_PLACEMENT_3D('',#383,#322,#323);
#256=AXIS2_PLACEMENT_3D('',#384,#324,#325);
#257=AXIS2_PLACEMENT_3D('',#386,#326,#327);
#258=AXIS2_PLACEMENT_3D('',#387,#328,#329);
#259=AXIS2_PLACEMENT_3D('',#390,#331,#332);
#260=AXIS2_PLACEMENT_3D('',#391,#333,#334);
#261=DIRECTION('axis',(0.,0.,1.));
#262=DIRECTION('refdir',(1.,0.,0.));
#263=DIRECTION('center_axis',(1.,-2.68072074283069E-14,-1.22464679914735E-16));
#264=DIRECTION('ref_axis',(-2.7142274627162E-14,-1.,3.32396997437324E-30));
#265=DIRECTION('center_axis',(1.,-2.68072074283069E-14,-1.22464679914735E-16));
#266=DIRECTION('ref_axis',(-1.22464679914735E-16,0.,-1.));
#267=DIRECTION('',(-1.,2.68072074283069E-14,1.22464679914735E-16));
#268=DIRECTION('center_axis',(1.,-2.68072074283069E-14,-1.22464679914735E-16));
#269=DIRECTION('ref_axis',(-1.22464679914735E-16,0.,-1.));
#270=DIRECTION('center_axis',(1.,-2.68072074283069E-14,-1.22464679914735E-16));
#271=DIRECTION('ref_axis',(-1.22464679914735E-16,0.,-1.));
#272=DIRECTION('center_axis',(1.,-2.68072074283069E-14,-1.22464679914735E-16));
#273=DIRECTION('ref_axis',(-1.22464679914735E-16,0.,-1.));
#274=DIRECTION('center_axis',(1.,-2.68072074283069E-14,-1.22464679914735E-16));
#275=DIRECTION('ref_axis',(-2.7142274627162E-14,-1.,3.32396997437324E-30));
#276=DIRECTION('center_axis',(1.,-2.68072074283069E-14,-1.22464679914735E-16));
#277=DIRECTION('ref_axis',(-1.22464679914735E-16,0.,-1.));
#278=DIRECTION('',(-1.,2.68072074283069E-14,1.22464679914735E-16));
#279=DIRECTION('center_axis',(-1.,2.68072074283069E-14,1.22464679914735E-16));
#280=DIRECTION('ref_axis',(1.22464679914735E-16,0.,1.));
#281=DIRECTION('center_axis',(1.,-2.68072074283069E-14,-1.22464679914735E-16));
#282=DIRECTION('ref_axis',(-1.22464679914735E-16,0.,-1.));
#283=DIRECTION('center_axis',(1.,-2.68072074283069E-14,-1.22464679914735E-16));
#284=DIRECTION('ref_axis',(-2.7142274627162E-14,-1.,3.32396997437324E-30));
#285=DIRECTION('center_axis',(1.,-2.68072074283069E-14,-1.22464679914735E-16));
#286=DIRECTION('ref_axis',(-1.22464679914735E-16,0.,-1.));
#287=DIRECTION('',(-1.,2.68072074283069E-14,1.22464679914735E-16));
#288=DIRECTION('center_axis',(1.,-2.68072074283069E-14,-1.22464679914735E-16));
#289=DIRECTION('ref_axis',(-1.22464679914735E-16,0.,-1.));
#290=DIRECTION('center_axis',(1.,-2.68072074283069E-14,-1.22464679914735E-16));
#291=DIRECTION('ref_axis',(-1.22464679914735E-16,0.,-1.));
#292=DIRECTION('center_axis',(1.,-2.68072074283069E-14,-1.22464679914735E-16));
#293=DIRECTION('ref_axis',(-2.7142274627162E-14,-1.,3.32396997437324E-30));
#294=DIRECTION('',(-1.,2.68072074283069E-14,1.22464679914735E-16));
#295=DIRECTION('center_axis',(1.,-2.68072074283069E-14,-1.22464679914735E-16));
#296=DIRECTION('ref_axis',(-1.22464679914735E-16,0.,-1.));
#297=DIRECTION('center_axis',(-1.,2.68072074283069E-14,1.22464679914735E-16));
#298=DIRECTION('ref_axis',(1.22464679914735E-16,0.,1.));
#299=DIRECTION('center_axis',(1.,-2.68072074283069E-14,-1.22464679914735E-16));
#300=DIRECTION('ref_axis',(-1.22464679914735E-16,0.,-1.));
#301=DIRECTION('center_axis',(1.,-2.68072074283069E-14,-1.22464679914735E-16));
#302=DIRECTION('ref_axis',(-2.7142274627162E-14,-1.,3.32396997437324E-30));
#303=DIRECTION('',(-1.,2.68072074283069E-14,1.22464679914735E-16));
#304=DIRECTION('center_axis',(1.,-2.68072074283069E-14,-1.22464679914735E-16));
#305=DIRECTION('ref_axis',(-1.22464679914735E-16,0.,-1.));
#306=DIRECTION('center_axis',(1.,-2.68072074283069E-14,-1.22464679914735E-16));
#307=DIRECTION('ref_axis',(-1.22464679914735E-16,0.,-1.));
#308=DIRECTION('center_axis',(1.,-2.68072074283069E-14,-1.22464679914735E-16));
#309=DIRECTION('ref_axis',(-1.22464679914735E-16,0.,-1.));
#310=DIRECTION('center_axis',(1.,-2.68072074283069E-14,-1.22464679914735E-16));
#311=DIRECTION('ref_axis',(-2.7142274627162E-14,-1.,3.32396997437324E-30));
#312=DIRECTION('',(-1.,2.68072074283069E-14,1.22464679914735E-16));
#313=DIRECTION('center_axis',(1.,-2.68072074283069E-14,-1.22464679914735E-16));
#314=DIRECTION('ref_axis',(-1.22464679914735E-16,0.,-1.));
#315=DIRECTION('center_axis',(-1.,2.68072074283069E-14,1.22464679914735E-16));
#316=DIRECTION('ref_axis',(1.22464679914735E-16,0.,1.));
#317=DIRECTION('center_axis',(1.,-2.68072074283069E-14,-1.22464679914735E-16));
#318=DIRECTION('ref_axis',(-1.22464679914735E-16,0.,-1.));
#319=DIRECTION('center_axis',(1.,-2.68072074283069E-14,-1.22464679914735E-16));
#320=DIRECTION('ref_axis',(-2.7142274627162E-14,-1.,3.32396997437324E-30));
#321=DIRECTION('',(-1.,2.68072074283069E-14,1.22464679914735E-16));
#322=DIRECTION('center_axis',(1.,-2.68072074283069E-14,-1.22464679914735E-16));
#323=DIRECTION('ref_axis',(-1.22464679914735E-16,0.,-1.));
#324=DIRECTION('center_axis',(1.,-2.68072074283069E-14,-1.22464679914735E-16));
#325=DIRECTION('ref_axis',(-1.22464679914735E-16,0.,-1.));
#326=DIRECTION('center_axis',(1.,-2.68072074283069E-14,-1.22464679914735E-16));
#327=DIRECTION('ref_axis',(-1.22464679914735E-16,0.,-1.));
#328=DIRECTION('center_axis',(1.,-2.68072074283069E-14,-1.22464679914735E-16));
#329=DIRECTION('ref_axis',(-2.7142274627162E-14,-1.,3.32396997437324E-30));
#330=DIRECTION('',(-1.,2.68072074283069E-14,1.22464679914735E-16));
#331=DIRECTION('center_axis',(1.,-2.68072074283069E-14,-1.22464679914735E-16));
#332=DIRECTION('ref_axis',(-1.22464679914735E-16,0.,-1.));
#333=DIRECTION('center_axis',(-1.,2.68072074283069E-14,1.22464679914735E-16));
#334=DIRECTION('ref_axis',(1.22464679914735E-16,0.,1.));
#335=CARTESIAN_POINT('',(0.,0.,0.));
#336=CARTESIAN_POINT('Origin',(-453.047500000001,6.30096708800495E-12,0.227708817790058));
#337=CARTESIAN_POINT('',(-230.175000000001,32.5000000000055,0.227708817790034));
#338=CARTESIAN_POINT('Origin',(-230.175000000002,3.26377750439644E-13,0.227708817790031));
#339=CARTESIAN_POINT('',(-675.92,32.5000000000174,0.227708817790089));
#340=CARTESIAN_POINT('',(-453.0475,32.5000000000114,0.227708817790062));
#341=CARTESIAN_POINT('Origin',(-675.920000000001,1.22755564255703E-11,0.227708817790084));
#342=CARTESIAN_POINT('Origin',(-230.175000000003,-31.0000000000002,0.227708817790031));
#343=CARTESIAN_POINT('',(-230.175000000001,30.9999999999983,0.227708817790035));
#344=CARTESIAN_POINT('Origin',(-230.175000000002,3.26377750439644E-13,0.227708817790031));
#345=CARTESIAN_POINT('Origin',(-228.850000000002,2.90858200597139E-13,0.227708817790031));
#346=CARTESIAN_POINT('',(-227.525000000001,30.9999999999982,0.227708817790035));
#347=CARTESIAN_POINT('Origin',(-227.525000000002,2.55338650754632E-13,0.227708817790031));
#348=CARTESIAN_POINT('',(-228.850000000001,30.9999999999983,0.227708817790035));
#349=CARTESIAN_POINT('Origin',(-227.525000000001,-32.4999999999952,0.227708817790031));
#350=CARTESIAN_POINT('',(-227.525,32.499999999998,0.227708817790036));
#351=CARTESIAN_POINT('Origin',(-227.525000000001,2.55338650754602E-13,0.227708817790031));
#352=CARTESIAN_POINT('Origin',(-222.762500000001,1.2766932537729E-13,0.227708817790031));
#353=CARTESIAN_POINT('',(-218.,32.4999999999977,0.227708817790034));
#354=CARTESIAN_POINT('Origin',(-218.000000000001,-2.22143230910237E-26,
0.227708817790031));
#355=CARTESIAN_POINT('',(-222.7625,32.4999999999979,0.227708817790035));
#356=CARTESIAN_POINT('Origin',(-218.000000000001,-30.,0.227708817790031));
#357=CARTESIAN_POINT('',(-218.,30.,0.227708817790034));
#358=CARTESIAN_POINT('Origin',(-218.000000000001,-2.01948391736579E-26,
0.227708817790031));
#359=CARTESIAN_POINT('Origin',(-219.905000000001,5.10677301509058E-14,0.227708817790031));
#360=CARTESIAN_POINT('',(-221.81,30.0000000000001,0.227708817790035));
#361=CARTESIAN_POINT('',(-219.905,30.0000000000001,0.227708817790035));
#362=CARTESIAN_POINT('Origin',(-221.810000000001,1.0213546030183E-13,0.227708817790031));
#363=CARTESIAN_POINT('Origin',(-221.810000000001,-31.5,0.227708817790031));
#364=CARTESIAN_POINT('',(-221.81,31.5000000000002,0.227708817790035));
#365=CARTESIAN_POINT('Origin',(-221.810000000001,1.02135460301828E-13,0.227708817790031));
#366=CARTESIAN_POINT('Origin',(-222.910000000001,1.31623388472965E-13,0.227708817790031));
#367=CARTESIAN_POINT('',(-224.01,31.5000000000003,0.227708817790035));
#368=CARTESIAN_POINT('',(-222.91,31.5000000000003,0.227708817790035));
#369=CARTESIAN_POINT('Origin',(-224.010000000001,1.61111316644103E-13,0.227708817790031));
#370=CARTESIAN_POINT('Origin',(-224.010000000001,-30.,0.227708817790031));
#371=CARTESIAN_POINT('',(-224.01,30.000000000006,0.227708817790034));
#372=CARTESIAN_POINT('Origin',(-224.010000000001,1.61111316644105E-13,0.227708817790031));
#373=CARTESIAN_POINT('Origin',(-446.960000000001,6.13777821278512E-12,0.227708817790058));
#374=CARTESIAN_POINT('',(-669.91,30.0000000000179,0.227708817790089));
#375=CARTESIAN_POINT('',(-446.96,30.0000000000119,0.227708817790061));
#376=CARTESIAN_POINT('Origin',(-669.910000000001,1.21144451089261E-11,0.227708817790084));
#377=CARTESIAN_POINT('Origin',(-669.910000000001,-31.4999999999993,0.227708817790084));
#378=CARTESIAN_POINT('',(-669.91,31.5000000000236,0.227708817790088));
#379=CARTESIAN_POINT('Origin',(-669.910000000001,1.21144451089261E-11,0.227708817790084));
#380=CARTESIAN_POINT('Origin',(-671.010000000001,1.21439330370973E-11,0.227708817790084));
#381=CARTESIAN_POINT('',(-672.11,31.5000000000236,0.227708817790088));
#382=CARTESIAN_POINT('',(-671.01,31.5000000000236,0.227708817790088));
#383=CARTESIAN_POINT('Origin',(-672.110000000001,1.21734209652684E-11,0.227708817790084));
#384=CARTESIAN_POINT('Origin',(-672.110000000001,-29.9999999999993,0.227708817790084));
#385=CARTESIAN_POINT('',(-672.11,30.0000000000238,0.227708817790088));
#386=CARTESIAN_POINT('Origin',(-672.110000000001,1.21734209652684E-11,0.227708817790084));
#387=CARTESIAN_POINT('Origin',(-674.015000000001,1.22244886954193E-11,0.227708817790084));
#388=CARTESIAN_POINT('',(-675.92,30.0000000000239,0.227708817790088));
#389=CARTESIAN_POINT('',(-674.015,30.0000000000238,0.227708817790088));
#390=CARTESIAN_POINT('Origin',(-675.920000000001,1.22755564255703E-11,0.227708817790084));
#391=CARTESIAN_POINT('Origin',(-675.920000000001,-32.4999999999995,0.227708817790084));
#392=UNCERTAINTY_MEASURE_WITH_UNIT(LENGTH_MEASURE(0.01),#396,
'DISTANCE_ACCURACY_VALUE',
'Maximum model space distance between geometric entities at asserted c
onnectivities');
#393=UNCERTAINTY_MEASURE_WITH_UNIT(LENGTH_MEASURE(0.01),#396,
'DISTANCE_ACCURACY_VALUE',
'Maximum model space distance between geometric entities at asserted c
onnectivities');
#394=(
GEOMETRIC_REPRESENTATION_CONTEXT(3)
GLOBAL_UNCERTAINTY_ASSIGNED_CONTEXT((#392))
GLOBAL_UNIT_ASSIGNED_CONTEXT((#396,#398,#399))
REPRESENTATION_CONTEXT('','3D')
);
#395=(
GEOMETRIC_REPRESENTATION_CONTEXT(3)
GLOBAL_UNCERTAINTY_ASSIGNED_CONTEXT((#393))
GLOBAL_UNIT_ASSIGNED_CONTEXT((#396,#398,#399))
REPRESENTATION_CONTEXT('','3D')
);
#396=(
LENGTH_UNIT()
NAMED_UNIT(*)
SI_UNIT(.MILLI.,.METRE.)
);
#397=(
LENGTH_UNIT()
NAMED_UNIT(*)
SI_UNIT($,.METRE.)
);
#398=(
NAMED_UNIT(*)
PLANE_ANGLE_UNIT()
SI_UNIT($,.RADIAN.)
);
#399=(
NAMED_UNIT(*)
SI_UNIT($,.STERADIAN.)
SOLID_ANGLE_UNIT()
);
#400=SHAPE_DEFINITION_REPRESENTATION(#401,#402);
#401=PRODUCT_DEFINITION_SHAPE('',$,#404);
#402=SHAPE_REPRESENTATION('',(#228),#394);
#403=PRODUCT_DEFINITION_CONTEXT('part definition',#408,'design');
#404=PRODUCT_DEFINITION('Case','Case',#405,#403);
#405=PRODUCT_DEFINITION_FORMATION('',$,#410);
#406=PRODUCT_RELATED_PRODUCT_CATEGORY('Case','Case',(#410));
#407=APPLICATION_PROTOCOL_DEFINITION('international standard',
'automotive_design',2009,#408);
#408=APPLICATION_CONTEXT(
'Core Data for Automotive Mechanical Design Process');
#409=PRODUCT_CONTEXT('part definition',#408,'mechanical');
#410=PRODUCT('Case','Case',$,(#409));
#411=PRESENTATION_STYLE_ASSIGNMENT((#413));
#412=PRESENTATION_STYLE_ASSIGNMENT((#414));
#413=SURFACE_STYLE_USAGE(.BOTH.,#415);
#414=SURFACE_STYLE_USAGE(.BOTH.,#416);
#415=SURFACE_SIDE_STYLE('',(#417));
#416=SURFACE_SIDE_STYLE('',(#418));
#417=SURFACE_STYLE_FILL_AREA(#419);
#418=SURFACE_STYLE_FILL_AREA(#420);
#419=FILL_AREA_STYLE('Acier inoxydable - Satin\X\E9',(#421));
#420=FILL_AREA_STYLE('Caoutchouc - Rigide',(#422));
#421=FILL_AREA_STYLE_COLOUR('Acier inoxydable - Satin\X\E9',#423);
#422=FILL_AREA_STYLE_COLOUR('Caoutchouc - Rigide',#424);
#423=COLOUR_RGB('Acier inoxydable - Satin\X\E9',0.796078431372549,0.796078431372549,
0.796078431372549);
#424=COLOUR_RGB('Caoutchouc - Rigide',0.152941176470588,0.152941176470588,
0.152941176470588);
ENDSEC;
END-ISO-10303-21;
