ISO-10303-21;
HEADER;
FILE_DESCRIPTION (( 'STEP AP203' ),
    '1' );
FILE_NAME ('Pièce2 chicane silencieux.STEP',
    '2023-03-27T18:27:47',
    ( '' ),
    ( '' ),
    'SwSTEP 2.0',
    'SolidWorks 2019',
    '' );
FILE_SCHEMA (( 'CONFIG_CONTROL_DESIGN' ));
ENDSEC;

DATA;
#1 = PERSON_AND_ORGANIZATION_ROLE ( 'design_supplier' ) ;
#2 = CARTESIAN_POINT ( 'NONE',  ( 35.49999999999999289, 4.347496136973102493E-15, 2.000000000000000000 ) ) ;
#3 = PERSON_AND_ORGANIZATION ( #138, #216 ) ;
#4 = CC_DESIGN_PERSON_AND_ORGANIZATION_ASSIGNMENT ( #135, #248, ( #50 ) ) ;
#5 = DIRECTION ( 'NONE',  ( 1.000000000000000000, 0.000000000000000000, 0.000000000000000000 ) ) ;
#6 = DIRECTION ( 'NONE',  ( -1.000000000000000000, 0.000000000000000000, 0.000000000000000000 ) ) ;
#7 = ORIENTED_EDGE ( 'NONE', *, *, #169, .F. ) ;
#8 = DIRECTION ( 'NONE',  ( -0.000000000000000000, -0.000000000000000000, -1.000000000000000000 ) ) ;
#9 = UNCERTAINTY_MEASURE_WITH_UNIT (LENGTH_MEASURE( 1.000000000000000082E-05 ), #44, 'distance_accuracy_value', 'NONE');
#10 = CARTESIAN_POINT ( 'NONE',  ( 0.000000000000000000, 0.000000000000000000, 2.000000000000000000 ) ) ;
#11 = CC_DESIGN_PERSON_AND_ORGANIZATION_ASSIGNMENT ( #147, #1, ( #21 ) ) ;
#12 = ORIENTED_EDGE ( 'NONE', *, *, #192, .F. ) ;
#13 = DIRECTION ( 'NONE',  ( 1.000000000000000000, 0.000000000000000000, 0.000000000000000000 ) ) ;
#14 = VERTEX_POINT ( 'NONE', #241 ) ;
#15 = LINE ( 'NONE', #63, #107 ) ;
#16 = APPLICATION_CONTEXT ( 'configuration controlled 3d designs of mechanical parts and assemblies' ) ;
#17 = EDGE_CURVE ( 'NONE', #82, #220, #164, .T. ) ;
#18 = CIRCLE ( 'NONE', #153, 35.49999999999999289 ) ;
#19 = AXIS2_PLACEMENT_3D ( 'NONE', #205, #41, #187 ) ;
#20 = COORDINATED_UNIVERSAL_TIME_OFFSET ( 1, 0, .AHEAD. ) ;
#21 = PRODUCT_DEFINITION_FORMATION_WITH_SPECIFIED_SOURCE ( 'ANY', '', #42, .NOT_KNOWN. ) ;
#22 = DIRECTION ( 'NONE',  ( -1.000000000000000000, 0.000000000000000000, 0.000000000000000000 ) ) ;
#23 = LOCAL_TIME ( 20, 27, 47.00000000000000000, #28 ) ;
#24 = COORDINATED_UNIVERSAL_TIME_OFFSET ( 1, 0, .AHEAD. ) ;
#25 = CARTESIAN_POINT ( 'NONE',  ( 0.000000000000000000, 0.000000000000000000, 0.000000000000000000 ) ) ;
#26 = SHAPE_DEFINITION_REPRESENTATION ( #36, #90 ) ;
#27 = CARTESIAN_POINT ( 'NONE',  ( -35.49999999999999289, 0.000000000000000000, 2.000000000000000000 ) ) ;
#28 = COORDINATED_UNIVERSAL_TIME_OFFSET ( 1, 0, .AHEAD. ) ;
#29 = MANIFOLD_SOLID_BREP ( 'Boss.-Extru.1', #237 ) ;
#30 = ADVANCED_FACE ( 'NONE', ( #223, #129 ), #185, .T. ) ;
#31 = VECTOR ( 'NONE', #67, 1000.000000000000000 ) ;
#32 = APPROVAL_PERSON_ORGANIZATION ( #132, #62, #172 ) ;
#33 = CC_DESIGN_SECURITY_CLASSIFICATION ( #210, ( #21 ) ) ;
#34 = EDGE_CURVE ( 'NONE', #239, #220, #56, .T. ) ;
#35 = CYLINDRICAL_SURFACE ( 'NONE', #77, 35.49999999999999289 ) ;
#36 = PRODUCT_DEFINITION_SHAPE ( 'NONE', 'NONE',  #50 ) ;
#37 = ORIENTED_EDGE ( 'NONE', *, *, #70, .T. ) ;
#38 = CARTESIAN_POINT ( 'NONE',  ( 0.000000000000000000, 0.000000000000000000, 0.000000000000000000 ) ) ;
#39 = CARTESIAN_POINT ( 'NONE',  ( -30.00000000000000000, 0.000000000000000000, 2.000000000000000000 ) ) ;
#40 = VERTEX_POINT ( 'NONE', #76 ) ;
#41 = DIRECTION ( 'NONE',  ( 0.000000000000000000, 0.000000000000000000, 1.000000000000000000 ) ) ;
#42 = PRODUCT ( 'Pièce2 chicane silencieux', 'Pièce2 chicane silencieux', '', ( #48 ) ) ;
#43 = PERSON_AND_ORGANIZATION_ROLE ( 'classification_officer' ) ;
#44 =( LENGTH_UNIT ( ) NAMED_UNIT ( * ) SI_UNIT ( .MILLI., .METRE. ) );
#45 = CARTESIAN_POINT ( 'NONE',  ( 0.000000000000000000, 0.000000000000000000, 2.000000000000000000 ) ) ;
#46 = SECURITY_CLASSIFICATION_LEVEL ( 'unclassified' ) ;
#47 =( NAMED_UNIT ( * ) SI_UNIT ( $, .STERADIAN. ) SOLID_ANGLE_UNIT ( ) );
#48 = MECHANICAL_CONTEXT ( 'NONE', #16, 'mechanical' ) ;
#49 = CIRCLE ( 'NONE', #85, 30.00000000000000000 ) ;
#50 = PRODUCT_DEFINITION ( 'UNKNOWN', '', #21, #78 ) ;
#51 = APPLICATION_CONTEXT ( 'configuration controlled 3d designs of mechanical parts and assemblies' ) ;
#52 = DIRECTION ( 'NONE',  ( 1.000000000000000000, 0.000000000000000000, -0.000000000000000000 ) ) ;
#53 = EDGE_LOOP ( 'NONE', ( #7, #75 ) ) ;
#54 = CYLINDRICAL_SURFACE ( 'NONE', #170, 35.49999999999999289 ) ;
#55 = AXIS2_PLACEMENT_3D ( 'NONE', #38, #72, #128 ) ;
#56 = LINE ( 'NONE', #59, #230 ) ;
#57 = EDGE_CURVE ( 'NONE', #220, #82, #18, .T. ) ;
#58 = EDGE_LOOP ( 'NONE', ( #113, #142, #112, #221 ) ) ;
#59 = CARTESIAN_POINT ( 'NONE',  ( 35.49999999999999289, 4.347496136973102493E-15, 2.000000000000000000 ) ) ;
#60 = LOCAL_TIME ( 20, 27, 47.00000000000000000, #208 ) ;
#61 = EDGE_LOOP ( 'NONE', ( #80, #37, #114, #184 ) ) ;
#62 = APPROVAL ( #193, 'UNSPECIFIED' ) ;
#63 = CARTESIAN_POINT ( 'NONE',  ( -30.00000000000000000, 0.000000000000000000, 2.000000000000000000 ) ) ;
#64 = COORDINATED_UNIVERSAL_TIME_OFFSET ( 1, 0, .AHEAD. ) ;
#65 = CARTESIAN_POINT ( 'NONE',  ( -35.49999999999999289, 0.000000000000000000, 2.000000000000000000 ) ) ;
#66 = CALENDAR_DATE ( 2023, 27, 3 ) ;
#67 = DIRECTION ( 'NONE',  ( -0.000000000000000000, -0.000000000000000000, -1.000000000000000000 ) ) ;
#68 = DATE_AND_TIME ( #119, #133 ) ;
#69 = CARTESIAN_POINT ( 'NONE',  ( 0.000000000000000000, 0.000000000000000000, 0.000000000000000000 ) ) ;
#70 = EDGE_CURVE ( 'NONE', #160, #14, #219, .T. ) ;
#71 = AXIS2_PLACEMENT_3D ( 'NONE', #211, #103, #145 ) ;
#72 = DIRECTION ( 'NONE',  ( 0.000000000000000000, 0.000000000000000000, 1.000000000000000000 ) ) ;
#73 = ORIENTED_EDGE ( 'NONE', *, *, #121, .F. ) ;
#74 = FACE_OUTER_BOUND ( 'NONE', #96, .T. ) ;
#75 = ORIENTED_EDGE ( 'NONE', *, *, #247, .F. ) ;
#76 = CARTESIAN_POINT ( 'NONE',  ( -30.00000000000000000, 0.000000000000000000, 0.000000000000000000 ) ) ;
#77 = AXIS2_PLACEMENT_3D ( 'NONE', #125, #92, #98 ) ;
#78 = DESIGN_CONTEXT ( 'detailed design', #51, 'design' ) ;
#79 = FACE_BOUND ( 'NONE', #165, .T. ) ;
#80 = ORIENTED_EDGE ( 'NONE', *, *, #169, .T. ) ;
#81 = DIRECTION ( 'NONE',  ( -0.000000000000000000, -0.000000000000000000, -1.000000000000000000 ) ) ;
#82 = VERTEX_POINT ( 'NONE', #163 ) ;
#83 = DIRECTION ( 'NONE',  ( 1.000000000000000000, 0.000000000000000000, 0.000000000000000000 ) ) ;
#84 = CIRCLE ( 'NONE', #214, 35.49999999999999289 ) ;
#85 = AXIS2_PLACEMENT_3D ( 'NONE', #45, #168, #83 ) ;
#86 = PERSON_AND_ORGANIZATION_ROLE ( 'creator' ) ;
#87 = PERSON_AND_ORGANIZATION ( #138, #216 ) ;
#88 = APPROVAL_STATUS ( 'not_yet_approved' ) ;
#89 = CC_DESIGN_APPROVAL ( #62, ( #210 ) ) ;
#90 = ADVANCED_BREP_SHAPE_REPRESENTATION ( 'PiÞce2 chicane silencieux', ( #29, #139 ), #183 ) ;
#91 = APPROVAL_DATE_TIME ( #149, #189 ) ;
#92 = DIRECTION ( 'NONE',  ( -0.000000000000000000, -0.000000000000000000, -1.000000000000000000 ) ) ;
#93 = CYLINDRICAL_SURFACE ( 'NONE', #154, 30.00000000000000000 ) ;
#94 = ORIENTED_EDGE ( 'NONE', *, *, #179, .T. ) ;
#95 = FACE_OUTER_BOUND ( 'NONE', #126, .T. ) ;
#96 = EDGE_LOOP ( 'NONE', ( #201, #167, #158, #12 ) ) ;
#97 = ADVANCED_FACE ( 'NONE', ( #74 ), #35, .T. ) ;
#98 = DIRECTION ( 'NONE',  ( -1.000000000000000000, 0.000000000000000000, 0.000000000000000000 ) ) ;
#99 = ORIENTED_EDGE ( 'NONE', *, *, #130, .T. ) ;
#100 = FACE_OUTER_BOUND ( 'NONE', #61, .T. ) ;
#101 = CIRCLE ( 'NONE', #231, 35.49999999999999289 ) ;
#102 = CALENDAR_DATE ( 2023, 27, 3 ) ;
#103 = DIRECTION ( 'NONE',  ( 0.000000000000000000, 0.000000000000000000, 1.000000000000000000 ) ) ;
#104 = DATE_AND_TIME ( #245, #207 ) ;
#105 = APPROVAL ( #173, 'UNSPECIFIED' ) ;
#106 = APPROVAL_ROLE ( '' ) ;
#107 = VECTOR ( 'NONE', #246, 1000.000000000000000 ) ;
#108 = ORIENTED_EDGE ( 'NONE', *, *, #17, .F. ) ;
#109 = FACE_OUTER_BOUND ( 'NONE', #58, .T. ) ;
#110 = CC_DESIGN_PERSON_AND_ORGANIZATION_ASSIGNMENT ( #176, #86, ( #21 ) ) ;
#111 = CIRCLE ( 'NONE', #71, 30.00000000000000000 ) ;
#112 = ORIENTED_EDGE ( 'NONE', *, *, #192, .T. ) ;
#113 = ORIENTED_EDGE ( 'NONE', *, *, #34, .F. ) ;
#114 = ORIENTED_EDGE ( 'NONE', *, *, #243, .F. ) ;
#115 = DIRECTION ( 'NONE',  ( 0.000000000000000000, 0.000000000000000000, 1.000000000000000000 ) ) ;
#116 = AXIS2_PLACEMENT_3D ( 'NONE', #190, #175, #213 ) ;
#117 = DATE_AND_TIME ( #102, #155 ) ;
#118 = ADVANCED_FACE ( 'NONE', ( #95, #79 ), #203, .F. ) ;
#119 = CALENDAR_DATE ( 2023, 27, 3 ) ;
#120 = APPLICATION_PROTOCOL_DEFINITION ( 'international standard', 'config_control_design', 1994, #16 ) ;
#121 = EDGE_CURVE ( 'NONE', #14, #40, #177, .T. ) ;
#122 = CARTESIAN_POINT ( 'NONE',  ( 0.000000000000000000, 0.000000000000000000, 0.000000000000000000 ) ) ;
#123 = DIRECTION ( 'NONE',  ( -0.000000000000000000, -0.000000000000000000, -1.000000000000000000 ) ) ;
#124 = VERTEX_POINT ( 'NONE', #39 ) ;
#125 = CARTESIAN_POINT ( 'NONE',  ( 0.000000000000000000, 0.000000000000000000, 2.000000000000000000 ) ) ;
#126 = EDGE_LOOP ( 'NONE', ( #108, #222 ) ) ;
#127 = CC_DESIGN_APPROVAL ( #189, ( #50 ) ) ;
#128 = DIRECTION ( 'NONE',  ( 1.000000000000000000, 0.000000000000000000, -0.000000000000000000 ) ) ;
#129 = FACE_BOUND ( 'NONE', #53, .T. ) ;
#130 = EDGE_CURVE ( 'NONE', #141, #239, #84, .T. ) ;
#131 = AXIS2_PLACEMENT_3D ( 'NONE', #10, #143, #52 ) ;
#132 = PERSON_AND_ORGANIZATION ( #138, #216 ) ;
#133 = LOCAL_TIME ( 20, 27, 47.00000000000000000, #64 ) ;
#134 = ADVANCED_FACE ( 'NONE', ( #109 ), #54, .T. ) ;
#135 = PERSON_AND_ORGANIZATION ( #138, #216 ) ;
#136 = CARTESIAN_POINT ( 'NONE',  ( 35.49999999999999289, 4.347496136973102493E-15, 0.000000000000000000 ) ) ;
#137 = PERSON_AND_ORGANIZATION ( #138, #216 ) ;
#138 = PERSON ( 'UNSPECIFIED', 'UNSPECIFIED', 'UNSPECIFIED', ('UNSPECIFIED'), ('UNSPECIFIED'), ('UNSPECIFIED') ) ;
#139 = AXIS2_PLACEMENT_3D ( 'NONE', #25, #174, #249 ) ;
#140 = ADVANCED_FACE ( 'NONE', ( #144 ), #93, .F. ) ;
#141 = VERTEX_POINT ( 'NONE', #65 ) ;
#142 = ORIENTED_EDGE ( 'NONE', *, *, #130, .F. ) ;
#143 = DIRECTION ( 'NONE',  ( 0.000000000000000000, 0.000000000000000000, 1.000000000000000000 ) ) ;
#144 = FACE_OUTER_BOUND ( 'NONE', #235, .T. ) ;
#145 = DIRECTION ( 'NONE',  ( 1.000000000000000000, 0.000000000000000000, 0.000000000000000000 ) ) ;
#146 = CIRCLE ( 'NONE', #178, 30.00000000000000000 ) ;
#147 = PERSON_AND_ORGANIZATION ( #138, #216 ) ;
#148 = CALENDAR_DATE ( 2023, 27, 3 ) ;
#149 = DATE_AND_TIME ( #148, #23 ) ;
#150 = CARTESIAN_POINT ( 'NONE',  ( 0.000000000000000000, 0.000000000000000000, 2.000000000000000000 ) ) ;
#151 = DATE_AND_TIME ( #66, #60 ) ;
#152 = DIRECTION ( 'NONE',  ( 1.000000000000000000, 0.000000000000000000, 0.000000000000000000 ) ) ;
#153 = AXIS2_PLACEMENT_3D ( 'NONE', #159, #166, #5 ) ;
#154 = AXIS2_PLACEMENT_3D ( 'NONE', #236, #123, #22 ) ;
#155 = LOCAL_TIME ( 20, 27, 47.00000000000000000, #20 ) ;
#156 = PRODUCT_RELATED_PRODUCT_CATEGORY ( 'detail', '', ( #42 ) ) ;
#157 = CARTESIAN_POINT ( 'NONE',  ( 0.000000000000000000, 0.000000000000000000, 2.000000000000000000 ) ) ;
#158 = ORIENTED_EDGE ( 'NONE', *, *, #57, .T. ) ;
#159 = CARTESIAN_POINT ( 'NONE',  ( 0.000000000000000000, 0.000000000000000000, 0.000000000000000000 ) ) ;
#160 = VERTEX_POINT ( 'NONE', #198 ) ;
#161 = DIRECTION ( 'NONE',  ( -0.000000000000000000, -0.000000000000000000, -1.000000000000000000 ) ) ;
#162 = ORIENTED_EDGE ( 'NONE', *, *, #121, .T. ) ;
#163 = CARTESIAN_POINT ( 'NONE',  ( -35.49999999999999289, 0.000000000000000000, 0.000000000000000000 ) ) ;
#164 = CIRCLE ( 'NONE', #191, 35.49999999999999289 ) ;
#165 = EDGE_LOOP ( 'NONE', ( #188, #162 ) ) ;
#166 = DIRECTION ( 'NONE',  ( 0.000000000000000000, 0.000000000000000000, 1.000000000000000000 ) ) ;
#167 = ORIENTED_EDGE ( 'NONE', *, *, #34, .T. ) ;
#168 = DIRECTION ( 'NONE',  ( 0.000000000000000000, 0.000000000000000000, 1.000000000000000000 ) ) ;
#169 = EDGE_CURVE ( 'NONE', #124, #160, #111, .T. ) ;
#170 = AXIS2_PLACEMENT_3D ( 'NONE', #240, #81, #6 ) ;
#171 = PERSON_AND_ORGANIZATION ( #138, #216 ) ;
#172 = APPROVAL_ROLE ( '' ) ;
#173 = APPROVAL_STATUS ( 'not_yet_approved' ) ;
#174 = DIRECTION ( 'NONE',  ( 0.000000000000000000, 0.000000000000000000, 1.000000000000000000 ) ) ;
#175 = DIRECTION ( 'NONE',  ( -0.000000000000000000, -0.000000000000000000, -1.000000000000000000 ) ) ;
#176 = PERSON_AND_ORGANIZATION ( #138, #216 ) ;
#177 = CIRCLE ( 'NONE', #19, 30.00000000000000000 ) ;
#178 = AXIS2_PLACEMENT_3D ( 'NONE', #69, #224, #228 ) ;
#179 = EDGE_CURVE ( 'NONE', #239, #141, #101, .T. ) ;
#180 = APPROVAL_PERSON_ORGANIZATION ( #137, #105, #106 ) ;
#181 = DIRECTION ( 'NONE',  ( 1.000000000000000000, 0.000000000000000000, 0.000000000000000000 ) ) ;
#182 = VECTOR ( 'NONE', #161, 1000.000000000000000 ) ;
#183 =( GEOMETRIC_REPRESENTATION_CONTEXT ( 3 ) GLOBAL_UNCERTAINTY_ASSIGNED_CONTEXT ( ( #9 ) ) GLOBAL_UNIT_ASSIGNED_CONTEXT ( ( #44, #229, #47 ) ) REPRESENTATION_CONTEXT ( 'NONE', 'WORKASPACE' ) );
#184 = ORIENTED_EDGE ( 'NONE', *, *, #217, .F. ) ;
#185 = PLANE ( 'NONE',  #131 ) ;
#186 = EDGE_LOOP ( 'NONE', ( #99, #94 ) ) ;
#187 = DIRECTION ( 'NONE',  ( 1.000000000000000000, 0.000000000000000000, 0.000000000000000000 ) ) ;
#188 = ORIENTED_EDGE ( 'NONE', *, *, #243, .T. ) ;
#189 = APPROVAL ( #88, 'UNSPECIFIED' ) ;
#190 = CARTESIAN_POINT ( 'NONE',  ( 0.000000000000000000, 0.000000000000000000, 2.000000000000000000 ) ) ;
#191 = AXIS2_PLACEMENT_3D ( 'NONE', #122, #200, #181 ) ;
#192 = EDGE_CURVE ( 'NONE', #141, #82, #242, .T. ) ;
#193 = APPROVAL_STATUS ( 'not_yet_approved' ) ;
#194 = DIRECTION ( 'NONE',  ( 0.000000000000000000, 0.000000000000000000, 1.000000000000000000 ) ) ;
#195 = CC_DESIGN_APPROVAL ( #105, ( #21 ) ) ;
#196 = DATE_TIME_ROLE ( 'classification_date' ) ;
#197 = PERSON_AND_ORGANIZATION_ROLE ( 'design_owner' ) ;
#198 = CARTESIAN_POINT ( 'NONE',  ( 30.00000000000000000, 3.673940397442059178E-15, 2.000000000000000000 ) ) ;
#199 = APPLICATION_PROTOCOL_DEFINITION ( 'international standard', 'config_control_design', 1994, #51 ) ;
#200 = DIRECTION ( 'NONE',  ( 0.000000000000000000, 0.000000000000000000, 1.000000000000000000 ) ) ;
#201 = ORIENTED_EDGE ( 'NONE', *, *, #179, .F. ) ;
#202 = CC_DESIGN_DATE_AND_TIME_ASSIGNMENT ( #68, #196, ( #210 ) ) ;
#203 = PLANE ( 'NONE',  #55 ) ;
#204 = ORIENTED_EDGE ( 'NONE', *, *, #247, .T. ) ;
#205 = CARTESIAN_POINT ( 'NONE',  ( 0.000000000000000000, 0.000000000000000000, 0.000000000000000000 ) ) ;
#206 = CARTESIAN_POINT ( 'NONE',  ( 30.00000000000000000, 3.673940397442059178E-15, 2.000000000000000000 ) ) ;
#207 = LOCAL_TIME ( 20, 27, 47.00000000000000000, #24 ) ;
#208 = COORDINATED_UNIVERSAL_TIME_OFFSET ( 1, 0, .AHEAD. ) ;
#209 = CYLINDRICAL_SURFACE ( 'NONE', #116, 30.00000000000000000 ) ;
#210 = SECURITY_CLASSIFICATION ( '', '', #46 ) ;
#211 = CARTESIAN_POINT ( 'NONE',  ( 0.000000000000000000, 0.000000000000000000, 2.000000000000000000 ) ) ;
#212 = APPROVAL_ROLE ( '' ) ;
#213 = DIRECTION ( 'NONE',  ( -1.000000000000000000, 0.000000000000000000, 0.000000000000000000 ) ) ;
#214 = AXIS2_PLACEMENT_3D ( 'NONE', #157, #115, #13 ) ;
#215 = APPROVAL_DATE_TIME ( #104, #62 ) ;
#216 = ORGANIZATION ( 'UNSPECIFIED', 'UNSPECIFIED', '' ) ;
#217 = EDGE_CURVE ( 'NONE', #124, #40, #15, .T. ) ;
#218 = ORIENTED_EDGE ( 'NONE', *, *, #70, .F. ) ;
#219 = LINE ( 'NONE', #206, #182 ) ;
#220 = VERTEX_POINT ( 'NONE', #136 ) ;
#221 = ORIENTED_EDGE ( 'NONE', *, *, #17, .T. ) ;
#222 = ORIENTED_EDGE ( 'NONE', *, *, #57, .F. ) ;
#223 = FACE_OUTER_BOUND ( 'NONE', #186, .T. ) ;
#224 = DIRECTION ( 'NONE',  ( 0.000000000000000000, 0.000000000000000000, 1.000000000000000000 ) ) ;
#225 = CC_DESIGN_DATE_AND_TIME_ASSIGNMENT ( #151, #226, ( #50 ) ) ;
#226 = DATE_TIME_ROLE ( 'creation_date' ) ;
#227 = CC_DESIGN_PERSON_AND_ORGANIZATION_ASSIGNMENT ( #3, #197, ( #42 ) ) ;
#228 = DIRECTION ( 'NONE',  ( 1.000000000000000000, 0.000000000000000000, 0.000000000000000000 ) ) ;
#229 =( NAMED_UNIT ( * ) PLANE_ANGLE_UNIT ( ) SI_UNIT ( $, .RADIAN. ) );
#230 = VECTOR ( 'NONE', #8, 1000.000000000000000 ) ;
#231 = AXIS2_PLACEMENT_3D ( 'NONE', #150, #194, #152 ) ;
#232 = ADVANCED_FACE ( 'NONE', ( #100 ), #209, .F. ) ;
#233 = APPROVAL_PERSON_ORGANIZATION ( #171, #189, #212 ) ;
#234 = CC_DESIGN_PERSON_AND_ORGANIZATION_ASSIGNMENT ( #87, #43, ( #210 ) ) ;
#235 = EDGE_LOOP ( 'NONE', ( #218, #204, #238, #73 ) ) ;
#236 = CARTESIAN_POINT ( 'NONE',  ( 0.000000000000000000, 0.000000000000000000, 2.000000000000000000 ) ) ;
#237 = CLOSED_SHELL ( 'NONE', ( #232, #97, #30, #118, #134, #140 ) ) ;
#238 = ORIENTED_EDGE ( 'NONE', *, *, #217, .T. ) ;
#239 = VERTEX_POINT ( 'NONE', #2 ) ;
#240 = CARTESIAN_POINT ( 'NONE',  ( 0.000000000000000000, 0.000000000000000000, 2.000000000000000000 ) ) ;
#241 = CARTESIAN_POINT ( 'NONE',  ( 30.00000000000000000, 3.673940397442059178E-15, 0.000000000000000000 ) ) ;
#242 = LINE ( 'NONE', #27, #31 ) ;
#243 = EDGE_CURVE ( 'NONE', #40, #14, #146, .T. ) ;
#244 = APPROVAL_DATE_TIME ( #117, #105 ) ;
#245 = CALENDAR_DATE ( 2023, 27, 3 ) ;
#246 = DIRECTION ( 'NONE',  ( -0.000000000000000000, -0.000000000000000000, -1.000000000000000000 ) ) ;
#247 = EDGE_CURVE ( 'NONE', #160, #124, #49, .T. ) ;
#248 = PERSON_AND_ORGANIZATION_ROLE ( 'creator' ) ;
#249 = DIRECTION ( 'NONE',  ( 1.000000000000000000, 0.000000000000000000, 0.000000000000000000 ) ) ;
ENDSEC;
END-ISO-10303-21;
