ISO-10303-21;
HEADER;
FILE_DESCRIPTION(('CATIA V5 STEP Exchange','CAx-IF Rec.Pracs.--- Model Styling and Organization---1.2---2011-12-15'),'2;1');

FILE_NAME('D:\\NOIX Z.stp','2023-03-14T13:38:06+00:00',('none'),('none'),'CATIA Version 5-6 Release 2015 SP4 HF38','CATIA V5 STEP AP203 Edition 2','none');

FILE_SCHEMA(('AP203_CONFIGURATION_CONTROLLED_3D_DESIGN_OF_MECHANICAL_PARTS_AND_ASSEMBLIES_MIM_LF  { 1 0 10303 403 3 1 4}'));

ENDSEC;
DATA;
#5=PRODUCT('PART33','','',(#2)) ;
#2=PRODUCT_CONTEXT(' ',#1,'mechanical') ;
#1=APPLICATION_CONTEXT('configuration controlled 3D design of mechanical parts and assemblies') ;
#13=PRODUCT_DEFINITION('',' ',#6,#3) ;
#3=PRODUCT_DEFINITION_CONTEXT('part definition',#1,' ') ;
#14=PRODUCT_DEFINITION_SHAPE(' ',' ',#13) ;
#12=DATE_AND_TIME(#10,#11) ;
#11=LOCAL_TIME(14,38,6.,#9) ;
#9=COORDINATED_UNIVERSAL_TIME_OFFSET(0,0,.AHEAD.) ;
#7=PRODUCT_CATEGORY('part','specification') ;
#22=SHAPE_REPRESENTATION(' ',(#21),#19) ;
#20=CARTESIAN_POINT(' ',(0.,0.,0.)) ;
#34=CARTESIAN_POINT('Axis2P3D Location',(0.,-12.,30.)) ;
#39=CARTESIAN_POINT('Axis2P3D Location',(0.,-12.,0.)) ;
#43=CARTESIAN_POINT('Vertex',(-5.51091059616E-015,-12.,30.)) ;
#45=CARTESIAN_POINT('Vertex',(9.18485099361E-015,-12.,-30.)) ;
#48=CARTESIAN_POINT('Axis2P3D Location',(0.,-12.,0.)) ;
#57=CARTESIAN_POINT('Axis2P3D Location',(0.,-12.,0.)) ;
#61=CARTESIAN_POINT('Vertex',(1.31377413144E-014,-12.,-11.)) ;
#63=CARTESIAN_POINT('Vertex',(-2.02066721859E-015,-12.,11.)) ;
#66=CARTESIAN_POINT('Axis2P3D Location',(0.,-12.,0.)) ;
#76=CARTESIAN_POINT('Axis2P3D Location',(0.,13.,0.)) ;
#81=CARTESIAN_POINT('Line Origine',(-3.67394039744E-015,19.,20.)) ;
#85=CARTESIAN_POINT('Vertex',(-8.57252759403E-015,37.,20.)) ;
#87=CARTESIAN_POINT('Vertex',(-3.67394039744E-015,0.,20.)) ;
#90=CARTESIAN_POINT('Axis2P3D Location',(0.,0.,0.)) ;
#94=CARTESIAN_POINT('Vertex',(2.38868023897E-014,0.,-20.)) ;
#97=CARTESIAN_POINT('Line Origine',(2.38868023897E-014,19.,-20.)) ;
#101=CARTESIAN_POINT('Vertex',(2.38868023897E-014,37.,-20.)) ;
#104=CARTESIAN_POINT('Axis2P3D Location',(0.,37.,0.)) ;
#116=CARTESIAN_POINT('Axis2P3D Location',(0.,0.,0.)) ;
#121=CARTESIAN_POINT('Axis2P3D Location',(0.,37.,0.)) ;
#133=CARTESIAN_POINT('Axis2P3D Location',(-1.19693051642E-013,57.,7.28306304154E-014)) ;
#138=CARTESIAN_POINT('Line Origine',(1.36320589929E-013,37.5,-19.5)) ;
#142=CARTESIAN_POINT('Vertex',(1.80866269589E-014,38.,-19.)) ;
#145=CARTESIAN_POINT('Line Origine',(9.63525610423E-014,37.5,19.5)) ;
#149=CARTESIAN_POINT('Vertex',(-2.03178108265E-014,38.,19.)) ;
#152=CARTESIAN_POINT('Axis2P3D Location',(-4.17595373585E-015,38.,5.3290705182E-015)) ;
#164=CARTESIAN_POINT('Axis2P3D Location',(-1.75859327101E-013,57.,-5.3290705182E-014)) ;
#169=CARTESIAN_POINT('Axis2P3D Location',(-7.1054273576E-015,38.,-2.6645352591E-015)) ;
#181=CARTESIAN_POINT('Axis2P3D Location',(0.,13.,0.)) ;
#186=CARTESIAN_POINT('Axis2P3D Location',(0.,37.,0.)) ;
#190=CARTESIAN_POINT('Vertex',(-2.42548154101E-014,37.,11.)) ;
#192=CARTESIAN_POINT('Vertex',(1.31377413144E-014,37.,-11.)) ;
#195=CARTESIAN_POINT('Line Origine',(1.31377413144E-014,13.,-11.)) ;
#200=CARTESIAN_POINT('Line Origine',(-2.02066721859E-015,13.,11.)) ;
#212=CARTESIAN_POINT('Axis2P3D Location',(0.,37.,0.)) ;
#224=CARTESIAN_POINT('Axis2P3D Location',(0.,38.,20.)) ;
#233=CARTESIAN_POINT('Axis2P3D Location',(4.93797825639E-016,38.,-3.5527136788E-015)) ;
#237=CARTESIAN_POINT('Vertex',(-1.47586256495E-014,38.,-12.)) ;
#239=CARTESIAN_POINT('Vertex',(-1.71056641283E-015,38.,12.)) ;
#242=CARTESIAN_POINT('Axis2P3D Location',(4.93797825639E-016,38.,-3.5527136788E-015)) ;
#252=CARTESIAN_POINT('Axis2P3D Location',(-2.04281036531E-014,26.,-1.90958360236E-014)) ;
#257=CARTESIAN_POINT('Line Origine',(-2.22728911644E-015,37.5,11.5)) ;
#262=CARTESIAN_POINT('Line Origine',(-1.09490472067E-014,37.5,-11.5)) ;
#274=CARTESIAN_POINT('Axis2P3D Location',(-3.83290737268E-014,26.,-3.01980662698E-014)) ;
#286=CARTESIAN_POINT('Axis2P3D Location',(0.,13.,0.)) ;
#291=CARTESIAN_POINT('Line Origine',(-5.51091059616E-015,-6.,30.)) ;
#295=CARTESIAN_POINT('Vertex',(-6.61494965731E-014,-1.,30.)) ;
#298=CARTESIAN_POINT('Line Origine',(9.18485099361E-015,-6.,-30.)) ;
#302=CARTESIAN_POINT('Vertex',(9.18485099361E-015,-1.,-30.)) ;
#305=CARTESIAN_POINT('Axis2P3D Location',(0.,-1.,0.)) ;
#317=CARTESIAN_POINT('Axis2P3D Location',(0.,-1.,0.)) ;
#329=CARTESIAN_POINT('Axis2P3D Location',(0.,0.,20.)) ;
#334=CARTESIAN_POINT('Axis2P3D Location',(-1.05078262266E-015,0.,3.5527136788E-015)) ;
#338=CARTESIAN_POINT('Vertex',(-2.50322189352E-014,0.,-29.)) ;
#340=CARTESIAN_POINT('Vertex',(1.93791779724E-014,0.,29.)) ;
#343=CARTESIAN_POINT('Axis2P3D Location',(-1.05078262266E-015,0.,3.5527136788E-015)) ;
#357=CARTESIAN_POINT('Axis2P3D Location',(-3.73679702438E-015,29.,-1.03028696685E-013)) ;
#362=CARTESIAN_POINT('Line Origine',(-4.52970994047E-014,-0.5,-29.5)) ;
#367=CARTESIAN_POINT('Line Origine',(-1.172395514E-013,-0.5,29.5)) ;
#379=CARTESIAN_POINT('Axis2P3D Location',(-1.01252339846E-013,29.,-1.82076576039E-013)) ;
#10=CALENDAR_DATE(2023,14,3) ;
#8=PRODUCT_RELATED_PRODUCT_CATEGORY('part',$,(#5)) ;
#18=UNCERTAINTY_MEASURE_WITH_UNIT(LENGTH_MEASURE(0.005),#15,'distance_accuracy_value','CONFUSED CURVE UNCERTAINTY') ;
#35=DIRECTION('Axis2P3D Direction',(0.,1.,0.)) ;
#36=DIRECTION('Axis2P3D XDirection',(1.,-0.,0.)) ;
#40=DIRECTION('Axis2P3D Direction',(0.,1.,0.)) ;
#49=DIRECTION('Axis2P3D Direction',(0.,1.,0.)) ;
#58=DIRECTION('Axis2P3D Direction',(0.,1.,0.)) ;
#67=DIRECTION('Axis2P3D Direction',(0.,1.,0.)) ;
#77=DIRECTION('Axis2P3D Direction',(0.,1.,0.)) ;
#78=DIRECTION('Axis2P3D XDirection',(-1.83697019872E-016,0.,1.)) ;
#82=DIRECTION('Vector Direction',(0.,1.,0.)) ;
#91=DIRECTION('Axis2P3D Direction',(0.,1.,0.)) ;
#98=DIRECTION('Vector Direction',(0.,1.,0.)) ;
#105=DIRECTION('Axis2P3D Direction',(0.,1.,0.)) ;
#117=DIRECTION('Axis2P3D Direction',(0.,1.,0.)) ;
#122=DIRECTION('Axis2P3D Direction',(0.,1.,0.)) ;
#134=DIRECTION('Axis2P3D Direction',(6.0798472582E-015,-1.,-3.5527136788E-015)) ;
#135=DIRECTION('Axis2P3D XDirection',(0.866025403784,6.98057178462E-015,-0.5)) ;
#139=DIRECTION('Vector Direction',(9.32339709264E-015,-0.707106781187,-0.707106781187)) ;
#146=DIRECTION('Vector Direction',(8.06732312569E-015,-0.707106781187,0.707106781187)) ;
#153=DIRECTION('Axis2P3D Direction',(1.84083345577E-017,1.,3.18841707367E-017)) ;
#165=DIRECTION('Axis2P3D Direction',(8.881784197E-015,-1.,2.6645352591E-015)) ;
#166=DIRECTION('Axis2P3D XDirection',(-2.72514861842E-016,2.63417803193E-015,1.)) ;
#170=DIRECTION('Axis2P3D Direction',(-8.881784197E-015,1.,-2.42041819336E-030)) ;
#182=DIRECTION('Axis2P3D Direction',(0.,1.,0.)) ;
#183=DIRECTION('Axis2P3D XDirection',(-1.83697019872E-016,0.,1.)) ;
#187=DIRECTION('Axis2P3D Direction',(0.,1.,0.)) ;
#196=DIRECTION('Vector Direction',(0.,1.,0.)) ;
#201=DIRECTION('Vector Direction',(0.,1.,0.)) ;
#213=DIRECTION('Axis2P3D Direction',(0.,1.,0.)) ;
#225=DIRECTION('Axis2P3D Direction',(0.,1.,0.)) ;
#226=DIRECTION('Axis2P3D XDirection',(1.,-0.,0.)) ;
#234=DIRECTION('Axis2P3D Direction',(0.,1.,0.)) ;
#243=DIRECTION('Axis2P3D Direction',(0.,1.,0.)) ;
#253=DIRECTION('Axis2P3D Direction',(1.7763568394E-015,1.,1.7763568394E-015)) ;
#254=DIRECTION('Axis2P3D XDirection',(-2.5771188818E-016,-1.71221572076E-015,1.)) ;
#258=DIRECTION('Vector Direction',(1.11912342452E-015,0.707106781187,0.707106781187)) ;
#263=DIRECTION('Vector Direction',(5.82843921085E-016,0.707106781187,-0.707106781187)) ;
#275=DIRECTION('Axis2P3D Direction',(3.0399236291E-015,1.,2.6645352591E-015)) ;
#276=DIRECTION('Axis2P3D XDirection',(0.866025403784,-1.31708901597E-015,-0.5)) ;
#287=DIRECTION('Axis2P3D Direction',(0.,1.,0.)) ;
#288=DIRECTION('Axis2P3D XDirection',(-1.83697019872E-016,0.,1.)) ;
#292=DIRECTION('Vector Direction',(0.,1.,0.)) ;
#299=DIRECTION('Vector Direction',(0.,1.,0.)) ;
#306=DIRECTION('Axis2P3D Direction',(0.,1.,0.)) ;
#318=DIRECTION('Axis2P3D Direction',(0.,1.,0.)) ;
#330=DIRECTION('Axis2P3D Direction',(0.,1.,0.)) ;
#331=DIRECTION('Axis2P3D XDirection',(1.,-0.,0.)) ;
#335=DIRECTION('Axis2P3D Direction',(0.,1.,0.)) ;
#344=DIRECTION('Axis2P3D Direction',(0.,1.,0.)) ;
#358=DIRECTION('Axis2P3D Direction',(-6.31088724177E-030,-1.,3.5527136788E-015)) ;
#359=DIRECTION('Axis2P3D XDirection',(0.866025403784,-1.71221572076E-015,-0.5)) ;
#363=DIRECTION('Vector Direction',(-1.25607396695E-015,-0.707106781187,-0.707106781187)) ;
#368=DIRECTION('Vector Direction',(-2.51214793389E-015,-0.707106781187,0.707106781187)) ;
#380=DIRECTION('Axis2P3D Direction',(3.5527136788E-015,-1.,6.2172489379E-015)) ;
#381=DIRECTION('Axis2P3D XDirection',(-3.61332703812E-016,6.19031837504E-015,1.)) ;
#21=AXIS2_PLACEMENT_3D(' ',#20,$,$) ;
#37=AXIS2_PLACEMENT_3D('Plane Axis2P3D',#34,#35,#36) ;
#41=AXIS2_PLACEMENT_3D('Circle Axis2P3D',#39,#40,$) ;
#50=AXIS2_PLACEMENT_3D('Circle Axis2P3D',#48,#49,$) ;
#59=AXIS2_PLACEMENT_3D('Circle Axis2P3D',#57,#58,$) ;
#68=AXIS2_PLACEMENT_3D('Circle Axis2P3D',#66,#67,$) ;
#79=AXIS2_PLACEMENT_3D('Cylinder Axis2P3D',#76,#77,#78) ;
#92=AXIS2_PLACEMENT_3D('Circle Axis2P3D',#90,#91,$) ;
#106=AXIS2_PLACEMENT_3D('Circle Axis2P3D',#104,#105,$) ;
#118=AXIS2_PLACEMENT_3D('Circle Axis2P3D',#116,#117,$) ;
#123=AXIS2_PLACEMENT_3D('Circle Axis2P3D',#121,#122,$) ;
#136=AXIS2_PLACEMENT_3D('Cone Axis2P3D',#133,#134,#135) ;
#154=AXIS2_PLACEMENT_3D('Circle Axis2P3D',#152,#153,$) ;
#167=AXIS2_PLACEMENT_3D('Cone Axis2P3D',#164,#165,#166) ;
#171=AXIS2_PLACEMENT_3D('Circle Axis2P3D',#169,#170,$) ;
#184=AXIS2_PLACEMENT_3D('Cylinder Axis2P3D',#181,#182,#183) ;
#188=AXIS2_PLACEMENT_3D('Circle Axis2P3D',#186,#187,$) ;
#214=AXIS2_PLACEMENT_3D('Circle Axis2P3D',#212,#213,$) ;
#227=AXIS2_PLACEMENT_3D('Plane Axis2P3D',#224,#225,#226) ;
#235=AXIS2_PLACEMENT_3D('Circle Axis2P3D',#233,#234,$) ;
#244=AXIS2_PLACEMENT_3D('Circle Axis2P3D',#242,#243,$) ;
#255=AXIS2_PLACEMENT_3D('Cone Axis2P3D',#252,#253,#254) ;
#277=AXIS2_PLACEMENT_3D('Cone Axis2P3D',#274,#275,#276) ;
#289=AXIS2_PLACEMENT_3D('Cylinder Axis2P3D',#286,#287,#288) ;
#307=AXIS2_PLACEMENT_3D('Circle Axis2P3D',#305,#306,$) ;
#319=AXIS2_PLACEMENT_3D('Circle Axis2P3D',#317,#318,$) ;
#332=AXIS2_PLACEMENT_3D('Plane Axis2P3D',#329,#330,#331) ;
#336=AXIS2_PLACEMENT_3D('Circle Axis2P3D',#334,#335,$) ;
#345=AXIS2_PLACEMENT_3D('Circle Axis2P3D',#343,#344,$) ;
#360=AXIS2_PLACEMENT_3D('Cone Axis2P3D',#357,#358,#359) ;
#382=AXIS2_PLACEMENT_3D('Cone Axis2P3D',#379,#380,#381) ;
#32=STYLED_ITEM(' ',(#31),#24) ;
#31=PRESENTATION_STYLE_ASSIGNMENT((#30)) ;
#30=SURFACE_STYLE_USAGE(.BOTH.,#29) ;
#29=SURFACE_SIDE_STYLE(' ',(#28)) ;
#28=SURFACE_STYLE_FILL_AREA(#27) ;
#27=FILL_AREA_STYLE(' ',(#26)) ;
#26=FILL_AREA_STYLE_COLOUR(' ',#25) ;
#83=VECTOR('Line Direction',#82,1.) ;
#99=VECTOR('Line Direction',#98,1.) ;
#140=VECTOR('Line Direction',#139,1.) ;
#147=VECTOR('Line Direction',#146,1.) ;
#197=VECTOR('Line Direction',#196,1.) ;
#202=VECTOR('Line Direction',#201,1.) ;
#259=VECTOR('Line Direction',#258,1.) ;
#264=VECTOR('Line Direction',#263,1.) ;
#293=VECTOR('Line Direction',#292,1.) ;
#300=VECTOR('Line Direction',#299,1.) ;
#364=VECTOR('Line Direction',#363,1.) ;
#369=VECTOR('Line Direction',#368,1.) ;
#47=EDGE_CURVE('',#44,#46,#42,.T.) ;
#52=EDGE_CURVE('',#46,#44,#51,.T.) ;
#65=EDGE_CURVE('',#62,#64,#60,.T.) ;
#70=EDGE_CURVE('',#64,#62,#69,.T.) ;
#89=EDGE_CURVE('',#86,#88,#84,.F.) ;
#96=EDGE_CURVE('',#88,#95,#93,.T.) ;
#103=EDGE_CURVE('',#102,#95,#100,.F.) ;
#108=EDGE_CURVE('',#86,#102,#107,.T.) ;
#120=EDGE_CURVE('',#95,#88,#119,.T.) ;
#125=EDGE_CURVE('',#102,#86,#124,.T.) ;
#144=EDGE_CURVE('',#143,#102,#141,.T.) ;
#151=EDGE_CURVE('',#150,#86,#148,.T.) ;
#156=EDGE_CURVE('',#143,#150,#155,.T.) ;
#173=EDGE_CURVE('',#150,#143,#172,.T.) ;
#194=EDGE_CURVE('',#191,#193,#189,.T.) ;
#199=EDGE_CURVE('',#62,#193,#198,.T.) ;
#204=EDGE_CURVE('',#64,#191,#203,.T.) ;
#216=EDGE_CURVE('',#193,#191,#215,.T.) ;
#241=EDGE_CURVE('',#238,#240,#236,.T.) ;
#246=EDGE_CURVE('',#240,#238,#245,.T.) ;
#261=EDGE_CURVE('',#191,#240,#260,.T.) ;
#266=EDGE_CURVE('',#193,#238,#265,.T.) ;
#297=EDGE_CURVE('',#296,#44,#294,.F.) ;
#304=EDGE_CURVE('',#303,#46,#301,.F.) ;
#309=EDGE_CURVE('',#296,#303,#308,.T.) ;
#321=EDGE_CURVE('',#303,#296,#320,.T.) ;
#342=EDGE_CURVE('',#339,#341,#337,.T.) ;
#347=EDGE_CURVE('',#341,#339,#346,.T.) ;
#366=EDGE_CURVE('',#339,#303,#365,.T.) ;
#371=EDGE_CURVE('',#341,#296,#370,.T.) ;
#38=PLANE('',#37) ;
#228=PLANE('',#227) ;
#333=PLANE('',#332) ;
#392=SHAPE_REPRESENTATION_RELATIONSHIP(' ',' ',#22,#391) ;
#74=FACE_BOUND('',#71,.T.) ;
#250=FACE_BOUND('',#247,.T.) ;
#355=FACE_BOUND('',#352,.T.) ;
#54=ORIENTED_EDGE('',*,*,#47,.F.) ;
#55=ORIENTED_EDGE('',*,*,#52,.F.) ;
#72=ORIENTED_EDGE('',*,*,#65,.T.) ;
#73=ORIENTED_EDGE('',*,*,#70,.T.) ;
#110=ORIENTED_EDGE('',*,*,#89,.T.) ;
#111=ORIENTED_EDGE('',*,*,#96,.T.) ;
#112=ORIENTED_EDGE('',*,*,#103,.F.) ;
#113=ORIENTED_EDGE('',*,*,#108,.F.) ;
#127=ORIENTED_EDGE('',*,*,#103,.T.) ;
#128=ORIENTED_EDGE('',*,*,#120,.T.) ;
#129=ORIENTED_EDGE('',*,*,#89,.F.) ;
#130=ORIENTED_EDGE('',*,*,#125,.F.) ;
#158=ORIENTED_EDGE('',*,*,#144,.T.) ;
#159=ORIENTED_EDGE('',*,*,#125,.T.) ;
#160=ORIENTED_EDGE('',*,*,#151,.F.) ;
#161=ORIENTED_EDGE('',*,*,#156,.F.) ;
#175=ORIENTED_EDGE('',*,*,#151,.T.) ;
#176=ORIENTED_EDGE('',*,*,#108,.T.) ;
#177=ORIENTED_EDGE('',*,*,#144,.F.) ;
#178=ORIENTED_EDGE('',*,*,#173,.F.) ;
#206=ORIENTED_EDGE('',*,*,#194,.T.) ;
#207=ORIENTED_EDGE('',*,*,#199,.F.) ;
#208=ORIENTED_EDGE('',*,*,#70,.F.) ;
#209=ORIENTED_EDGE('',*,*,#204,.T.) ;
#218=ORIENTED_EDGE('',*,*,#216,.T.) ;
#219=ORIENTED_EDGE('',*,*,#204,.F.) ;
#220=ORIENTED_EDGE('',*,*,#65,.F.) ;
#221=ORIENTED_EDGE('',*,*,#199,.T.) ;
#230=ORIENTED_EDGE('',*,*,#156,.T.) ;
#231=ORIENTED_EDGE('',*,*,#173,.T.) ;
#248=ORIENTED_EDGE('',*,*,#241,.F.) ;
#249=ORIENTED_EDGE('',*,*,#246,.F.) ;
#268=ORIENTED_EDGE('',*,*,#261,.T.) ;
#269=ORIENTED_EDGE('',*,*,#246,.T.) ;
#270=ORIENTED_EDGE('',*,*,#266,.F.) ;
#271=ORIENTED_EDGE('',*,*,#194,.F.) ;
#280=ORIENTED_EDGE('',*,*,#266,.T.) ;
#281=ORIENTED_EDGE('',*,*,#241,.T.) ;
#282=ORIENTED_EDGE('',*,*,#261,.F.) ;
#283=ORIENTED_EDGE('',*,*,#216,.F.) ;
#311=ORIENTED_EDGE('',*,*,#297,.T.) ;
#312=ORIENTED_EDGE('',*,*,#47,.T.) ;
#313=ORIENTED_EDGE('',*,*,#304,.F.) ;
#314=ORIENTED_EDGE('',*,*,#309,.F.) ;
#323=ORIENTED_EDGE('',*,*,#304,.T.) ;
#324=ORIENTED_EDGE('',*,*,#52,.T.) ;
#325=ORIENTED_EDGE('',*,*,#297,.F.) ;
#326=ORIENTED_EDGE('',*,*,#321,.F.) ;
#349=ORIENTED_EDGE('',*,*,#342,.T.) ;
#350=ORIENTED_EDGE('',*,*,#347,.T.) ;
#353=ORIENTED_EDGE('',*,*,#96,.F.) ;
#354=ORIENTED_EDGE('',*,*,#120,.F.) ;
#373=ORIENTED_EDGE('',*,*,#366,.T.) ;
#374=ORIENTED_EDGE('',*,*,#321,.T.) ;
#375=ORIENTED_EDGE('',*,*,#371,.F.) ;
#376=ORIENTED_EDGE('',*,*,#342,.F.) ;
#385=ORIENTED_EDGE('',*,*,#371,.T.) ;
#386=ORIENTED_EDGE('',*,*,#309,.T.) ;
#387=ORIENTED_EDGE('',*,*,#366,.F.) ;
#388=ORIENTED_EDGE('',*,*,#347,.F.) ;
#33=CLOSED_SHELL('Closed Shell',(#75,#115,#132,#163,#180,#211,#223,#251,#273,#285,#316,#328,#356,#378,#390)) ;
#393=MECHANICAL_DESIGN_GEOMETRIC_PRESENTATION_REPRESENTATION(' ',(#32),#19) ;
#391=ADVANCED_BREP_SHAPE_REPRESENTATION('NONE',(#24),#19) ;
#75=ADVANCED_FACE('Corps principal',(#56,#74),#38,.F.) ;
#115=ADVANCED_FACE('Corps principal',(#114),#80,.T.) ;
#132=ADVANCED_FACE('Corps principal',(#131),#80,.T.) ;
#163=ADVANCED_FACE('Corps principal',(#162),#137,.T.) ;
#180=ADVANCED_FACE('Corps principal',(#179),#168,.T.) ;
#211=ADVANCED_FACE('Corps principal',(#210),#185,.F.) ;
#223=ADVANCED_FACE('Corps principal',(#222),#185,.F.) ;
#251=ADVANCED_FACE('Corps principal',(#232,#250),#228,.T.) ;
#273=ADVANCED_FACE('Corps principal',(#272),#256,.F.) ;
#285=ADVANCED_FACE('Corps principal',(#284),#278,.F.) ;
#316=ADVANCED_FACE('Corps principal',(#315),#290,.T.) ;
#328=ADVANCED_FACE('Corps principal',(#327),#290,.T.) ;
#356=ADVANCED_FACE('Corps principal',(#351,#355),#333,.T.) ;
#378=ADVANCED_FACE('Corps principal',(#377),#361,.T.) ;
#390=ADVANCED_FACE('Corps principal',(#389),#383,.T.) ;
#4=APPLICATION_PROTOCOL_DEFINITION('draft international standard','configuration_control_3d_design_ed2_mim',2004,#1) ;
#24=MANIFOLD_SOLID_BREP('Corps principal',#33) ;
#42=CIRCLE('generated circle',#41,30.) ;
#51=CIRCLE('generated circle',#50,30.) ;
#60=CIRCLE('generated circle',#59,11.) ;
#69=CIRCLE('generated circle',#68,11.) ;
#93=CIRCLE('generated circle',#92,20.) ;
#107=CIRCLE('generated circle',#106,20.) ;
#119=CIRCLE('generated circle',#118,20.) ;
#124=CIRCLE('generated circle',#123,20.) ;
#155=CIRCLE('generated circle',#154,19.) ;
#172=CIRCLE('generated circle',#171,19.) ;
#189=CIRCLE('generated circle',#188,11.) ;
#215=CIRCLE('generated circle',#214,11.) ;
#236=CIRCLE('generated circle',#235,12.) ;
#245=CIRCLE('generated circle',#244,12.) ;
#308=CIRCLE('generated circle',#307,30.) ;
#320=CIRCLE('generated circle',#319,30.) ;
#337=CIRCLE('generated circle',#336,29.) ;
#346=CIRCLE('generated circle',#345,29.) ;
#25=COLOUR_RGB('Colour',0.823529411765,0.823529411765,1.) ;
#137=CONICAL_SURFACE('Cone',#136,0.,0.785398163397) ;
#168=CONICAL_SURFACE('Cone',#167,0.,0.785398163397) ;
#256=CONICAL_SURFACE('Cone',#255,0.,0.785398163397) ;
#278=CONICAL_SURFACE('Cone',#277,0.,0.785398163397) ;
#361=CONICAL_SURFACE('Cone',#360,0.,0.785398163397) ;
#383=CONICAL_SURFACE('Cone',#382,0.,0.785398163397) ;
#80=CYLINDRICAL_SURFACE('generated cylinder',#79,20.) ;
#185=CYLINDRICAL_SURFACE('generated cylinder',#184,11.) ;
#290=CYLINDRICAL_SURFACE('generated cylinder',#289,30.) ;
#53=EDGE_LOOP('',(#54,#55)) ;
#71=EDGE_LOOP('',(#72,#73)) ;
#109=EDGE_LOOP('',(#110,#111,#112,#113)) ;
#126=EDGE_LOOP('',(#127,#128,#129,#130)) ;
#157=EDGE_LOOP('',(#158,#159,#160,#161)) ;
#174=EDGE_LOOP('',(#175,#176,#177,#178)) ;
#205=EDGE_LOOP('',(#206,#207,#208,#209)) ;
#217=EDGE_LOOP('',(#218,#219,#220,#221)) ;
#229=EDGE_LOOP('',(#230,#231)) ;
#247=EDGE_LOOP('',(#248,#249)) ;
#267=EDGE_LOOP('',(#268,#269,#270,#271)) ;
#279=EDGE_LOOP('',(#280,#281,#282,#283)) ;
#310=EDGE_LOOP('',(#311,#312,#313,#314)) ;
#322=EDGE_LOOP('',(#323,#324,#325,#326)) ;
#348=EDGE_LOOP('',(#349,#350)) ;
#352=EDGE_LOOP('',(#353,#354)) ;
#372=EDGE_LOOP('',(#373,#374,#375,#376)) ;
#384=EDGE_LOOP('',(#385,#386,#387,#388)) ;
#56=FACE_OUTER_BOUND('',#53,.T.) ;
#114=FACE_OUTER_BOUND('',#109,.T.) ;
#131=FACE_OUTER_BOUND('',#126,.T.) ;
#162=FACE_OUTER_BOUND('',#157,.T.) ;
#179=FACE_OUTER_BOUND('',#174,.T.) ;
#210=FACE_OUTER_BOUND('',#205,.T.) ;
#222=FACE_OUTER_BOUND('',#217,.T.) ;
#232=FACE_OUTER_BOUND('',#229,.T.) ;
#272=FACE_OUTER_BOUND('',#267,.T.) ;
#284=FACE_OUTER_BOUND('',#279,.T.) ;
#315=FACE_OUTER_BOUND('',#310,.T.) ;
#327=FACE_OUTER_BOUND('',#322,.T.) ;
#351=FACE_OUTER_BOUND('',#348,.T.) ;
#377=FACE_OUTER_BOUND('',#372,.T.) ;
#389=FACE_OUTER_BOUND('',#384,.T.) ;
#84=LINE('Line',#81,#83) ;
#100=LINE('Line',#97,#99) ;
#141=LINE('Line',#138,#140) ;
#148=LINE('Line',#145,#147) ;
#198=LINE('Line',#195,#197) ;
#203=LINE('Line',#200,#202) ;
#260=LINE('Line',#257,#259) ;
#265=LINE('Line',#262,#264) ;
#294=LINE('Line',#291,#293) ;
#301=LINE('Line',#298,#300) ;
#365=LINE('Line',#362,#364) ;
#370=LINE('Line',#367,#369) ;
#6=PRODUCT_DEFINITION_FORMATION_WITH_SPECIFIED_SOURCE('',' ',#5,.NOT_KNOWN.) ;
#23=SHAPE_DEFINITION_REPRESENTATION(#14,#22) ;
#44=VERTEX_POINT('',#43) ;
#46=VERTEX_POINT('',#45) ;
#62=VERTEX_POINT('',#61) ;
#64=VERTEX_POINT('',#63) ;
#86=VERTEX_POINT('',#85) ;
#88=VERTEX_POINT('',#87) ;
#95=VERTEX_POINT('',#94) ;
#102=VERTEX_POINT('',#101) ;
#143=VERTEX_POINT('',#142) ;
#150=VERTEX_POINT('',#149) ;
#191=VERTEX_POINT('',#190) ;
#193=VERTEX_POINT('',#192) ;
#238=VERTEX_POINT('',#237) ;
#240=VERTEX_POINT('',#239) ;
#296=VERTEX_POINT('',#295) ;
#303=VERTEX_POINT('',#302) ;
#339=VERTEX_POINT('',#338) ;
#341=VERTEX_POINT('',#340) ;
#15=(LENGTH_UNIT()NAMED_UNIT(*)SI_UNIT(.MILLI.,.METRE.)) ;
#16=(NAMED_UNIT(*)PLANE_ANGLE_UNIT()SI_UNIT($,.RADIAN.)) ;
#17=(NAMED_UNIT(*)SI_UNIT($,.STERADIAN.)SOLID_ANGLE_UNIT()) ;
#19=(GEOMETRIC_REPRESENTATION_CONTEXT(3)GLOBAL_UNCERTAINTY_ASSIGNED_CONTEXT((#18))GLOBAL_UNIT_ASSIGNED_CONTEXT((#15,#16,#17))REPRESENTATION_CONTEXT(' ',' ')) ;
ENDSEC;
END-ISO-10303-21;
