ISO-10303-21;
HEADER;
FILE_DESCRIPTION (( 'STEP AP214' ),
    '1' );
FILE_NAME ('coussinet_charniere_STP.STEP',
    '2023-06-17T15:44:09',
    ( '' ),
    ( '' ),
    'SwSTEP 2.0',
    'SolidWorks 2022',
    '' );
FILE_SCHEMA (( 'AUTOMOTIVE_DESIGN' ));
ENDSEC;

DATA;
#1 = VERTEX_POINT ( 'NONE', #54 ) ;
#2 = CIRCLE ( 'NONE', #49, 5.000000000000000000 ) ;
#3 = DIRECTION ( 'NONE',  ( 0.000000000000000000, 0.000000000000000000, 1.000000000000000000 ) ) ;
#4 = ORIENTED_EDGE ( 'NONE', *, *, #31, .T. ) ;
#5 = DIRECTION ( 'NONE',  ( -1.000000000000000000, 0.000000000000000000, 0.000000000000000000 ) ) ;
#6 = DIRECTION ( 'NONE',  ( -0.000000000000000000, -0.000000000000000000, -1.000000000000000000 ) ) ;
#7 = FACE_BOUND ( 'NONE', #36, .T. ) ;
#8 =( NAMED_UNIT ( * ) PLANE_ANGLE_UNIT ( ) SI_UNIT ( $, .RADIAN. ) );
#9 = CARTESIAN_POINT ( 'NONE',  ( -1.949999999999999956, 0.000000000000000000, 30.00000000000000000 ) ) ;
#10 = DIRECTION ( 'NONE',  ( -0.000000000000000000, -0.000000000000000000, -1.000000000000000000 ) ) ;
#11 = APPLICATION_PROTOCOL_DEFINITION ( 'draft international standard', 'automotive_design', 1998, #141 ) ;
#12 = DIRECTION ( 'NONE',  ( 0.000000000000000000, 0.000000000000000000, 1.000000000000000000 ) ) ;
#13 = SURFACE_STYLE_USAGE ( .BOTH. , #30 ) ;
#14 = AXIS2_PLACEMENT_3D ( 'NONE', #205, #107, #5 ) ;
#15 = ORIENTED_EDGE ( 'NONE', *, *, #44, .F. ) ;
#16 = UNCERTAINTY_MEASURE_WITH_UNIT (LENGTH_MEASURE( 1.000000000000000082E-05 ), #178, 'distance_accuracy_value', 'NONE');
#17 = EDGE_LOOP ( 'NONE', ( #137, #53 ) ) ;
#18 = VERTEX_POINT ( 'NONE', #109 ) ;
#19 = DIRECTION ( 'NONE',  ( -1.000000000000000000, 0.000000000000000000, 0.000000000000000000 ) ) ;
#20 = MECHANICAL_DESIGN_GEOMETRIC_PRESENTATION_REPRESENTATION (  '', ( #149 ), #129 ) ;
#21 =( NAMED_UNIT ( * ) SI_UNIT ( $, .STERADIAN. ) SOLID_ANGLE_UNIT ( ) );
#22 = ADVANCED_FACE ( 'NONE', ( #175 ), #122, .F. ) ;
#23 = VECTOR ( 'NONE', #179, 1000.000000000000000 ) ;
#24 = ORIENTED_EDGE ( 'NONE', *, *, #157, .F. ) ;
#25 = DIRECTION ( 'NONE',  ( 0.000000000000000000, 0.000000000000000000, 1.000000000000000000 ) ) ;
#26 = CARTESIAN_POINT ( 'NONE',  ( 0.000000000000000000, 0.000000000000000000, 30.00000000000000000 ) ) ;
#27 = CARTESIAN_POINT ( 'NONE',  ( 0.000000000000000000, 0.000000000000000000, 30.00000000000000000 ) ) ;
#28 = PRESENTATION_LAYER_ASSIGNMENT (  '', '', ( #149 ) ) ;
#29 = CARTESIAN_POINT ( 'NONE',  ( 0.000000000000000000, 0.000000000000000000, 0.000000000000000000 ) ) ;
#30 = SURFACE_SIDE_STYLE ('',( #164 ) ) ;
#31 = EDGE_CURVE ( 'NONE', #65, #1, #58, .T. ) ;
#32 = CIRCLE ( 'NONE', #154, 5.000000000000000000 ) ;
#33 = EDGE_LOOP ( 'NONE', ( #56, #4 ) ) ;
#34 = ADVANCED_FACE ( 'NONE', ( #75 ), #51, .T. ) ;
#35 = ORIENTED_EDGE ( 'NONE', *, *, #62, .T. ) ;
#36 = EDGE_LOOP ( 'NONE', ( #88, #15 ) ) ;
#37 = DIRECTION ( 'NONE',  ( 1.000000000000000000, 0.000000000000000000, 0.000000000000000000 ) ) ;
#38 = EDGE_LOOP ( 'NONE', ( #103, #169, #68, #70 ) ) ;
#39 = FILL_AREA_STYLE ('',( #78 ) ) ;
#40 = AXIS2_PLACEMENT_3D ( 'NONE', #211, #43, #207 ) ;
#41 = MANIFOLD_SOLID_BREP ( 'Boss.-Extru.1', #47 ) ;
#42 = LINE ( 'NONE', #9, #23 ) ;
#43 = DIRECTION ( 'NONE',  ( -0.000000000000000000, -0.000000000000000000, -1.000000000000000000 ) ) ;
#44 = EDGE_CURVE ( 'NONE', #89, #48, #104, .T. ) ;
#45 = CARTESIAN_POINT ( 'NONE',  ( 1.949999999999999956, 2.388061258337338643E-16, 30.00000000000000000 ) ) ;
#46 = PLANE ( 'NONE',  #131 ) ;
#47 = CLOSED_SHELL ( 'NONE', ( #128, #34, #176, #165, #132, #22 ) ) ;
#48 = VERTEX_POINT ( 'NONE', #118 ) ;
#49 = AXIS2_PLACEMENT_3D ( 'NONE', #120, #3, #37 ) ;
#50 = MECHANICAL_DESIGN_GEOMETRIC_PRESENTATION_REPRESENTATION (  '', ( #135 ), #72 ) ;
#51 = CYLINDRICAL_SURFACE ( 'NONE', #14, 5.000000000000000000 ) ;
#52 = ORIENTED_EDGE ( 'NONE', *, *, #197, .F. ) ;
#53 = ORIENTED_EDGE ( 'NONE', *, *, #64, .F. ) ;
#54 = CARTESIAN_POINT ( 'NONE',  ( -1.949999999999999956, 0.000000000000000000, 0.000000000000000000 ) ) ;
#55 =( GEOMETRIC_REPRESENTATION_CONTEXT ( 3 ) GLOBAL_UNCERTAINTY_ASSIGNED_CONTEXT ( ( #16 ) ) GLOBAL_UNIT_ASSIGNED_CONTEXT ( ( #178, #8, #97 ) ) REPRESENTATION_CONTEXT ( 'NONE', 'WORKASPACE' ) );
#56 = ORIENTED_EDGE ( 'NONE', *, *, #168, .T. ) ;
#57 = CARTESIAN_POINT ( 'NONE',  ( -5.000000000000000000, 0.000000000000000000, 0.000000000000000000 ) ) ;
#58 = CIRCLE ( 'NONE', #184, 1.949999999999999956 ) ;
#59 = CARTESIAN_POINT ( 'NONE',  ( 5.000000000000000000, 6.123233995736766282E-16, 30.00000000000000000 ) ) ;
#60 = PRODUCT_DEFINITION_SHAPE ( 'NONE', 'NONE',  #77 ) ;
#61 = CIRCLE ( 'NONE', #185, 1.949999999999999956 ) ;
#62 = EDGE_CURVE ( 'NONE', #18, #151, #117, .T. ) ;
#63 = CARTESIAN_POINT ( 'NONE',  ( 0.000000000000000000, 0.000000000000000000, 0.000000000000000000 ) ) ;
#64 = EDGE_CURVE ( 'NONE', #133, #151, #2, .T. ) ;
#65 = VERTEX_POINT ( 'NONE', #134 ) ;
#66 = DIRECTION ( 'NONE',  ( 1.000000000000000000, 0.000000000000000000, 0.000000000000000000 ) ) ;
#67 = PRODUCT_DEFINITION_CONTEXT ( 'detailed design', #141, 'design' ) ;
#68 = ORIENTED_EDGE ( 'NONE', *, *, #168, .F. ) ;
#69 = CIRCLE ( 'NONE', #163, 5.000000000000000000 ) ;
#70 = ORIENTED_EDGE ( 'NONE', *, *, #92, .F. ) ;
#71 = CARTESIAN_POINT ( 'NONE',  ( 5.000000000000000000, 6.123233995736766282E-16, 30.00000000000000000 ) ) ;
#72 =( GEOMETRIC_REPRESENTATION_CONTEXT ( 3 ) GLOBAL_UNCERTAINTY_ASSIGNED_CONTEXT ( ( #166 ) ) GLOBAL_UNIT_ASSIGNED_CONTEXT ( ( #172, #173, #21 ) ) REPRESENTATION_CONTEXT ( 'NONE', 'WORKASPACE' ) );
#73 = DIRECTION ( 'NONE',  ( 0.000000000000000000, 0.000000000000000000, 1.000000000000000000 ) ) ;
#74 = SURFACE_STYLE_FILL_AREA ( #39 ) ;
#75 = FACE_OUTER_BOUND ( 'NONE', #130, .T. ) ;
#76 = PRODUCT ( 'coussinet_charniere_STP', 'coussinet_charniere_STP', '', ( #115 ) ) ;
#77 = PRODUCT_DEFINITION ( 'UNKNOWN', '', #182, #67 ) ;
#78 = FILL_AREA_STYLE_COLOUR ( '', #177 ) ;
#79 = DIRECTION ( 'NONE',  ( -1.000000000000000000, 0.000000000000000000, 0.000000000000000000 ) ) ;
#80 = CARTESIAN_POINT ( 'NONE',  ( 5.000000000000000000, 6.123233995736766282E-16, 0.000000000000000000 ) ) ;
#81 = EDGE_CURVE ( 'NONE', #167, #133, #106, .T. ) ;
#82 = CARTESIAN_POINT ( 'NONE',  ( 0.000000000000000000, 0.000000000000000000, 30.00000000000000000 ) ) ;
#83 = CIRCLE ( 'NONE', #108, 5.000000000000000000 ) ;
#84 = DIRECTION ( 'NONE',  ( 0.000000000000000000, 0.000000000000000000, 1.000000000000000000 ) ) ;
#85 =( NAMED_UNIT ( * ) SI_UNIT ( $, .STERADIAN. ) SOLID_ANGLE_UNIT ( ) );
#86 = DIRECTION ( 'NONE',  ( 0.000000000000000000, 0.000000000000000000, 1.000000000000000000 ) ) ;
#87 = ORIENTED_EDGE ( 'NONE', *, *, #64, .T. ) ;
#88 = ORIENTED_EDGE ( 'NONE', *, *, #213, .F. ) ;
#89 = VERTEX_POINT ( 'NONE', #45 ) ;
#90 = DIRECTION ( 'NONE',  ( 1.000000000000000000, 0.000000000000000000, 0.000000000000000000 ) ) ;
#91 = AXIS2_PLACEMENT_3D ( 'NONE', #138, #73, #90 ) ;
#92 = EDGE_CURVE ( 'NONE', #48, #1, #42, .T. ) ;
#93 = DIRECTION ( 'NONE',  ( 0.000000000000000000, 0.000000000000000000, 1.000000000000000000 ) ) ;
#94 = FACE_OUTER_BOUND ( 'NONE', #17, .T. ) ;
#95 = DIRECTION ( 'NONE',  ( -0.000000000000000000, -0.000000000000000000, -1.000000000000000000 ) ) ;
#96 = FACE_BOUND ( 'NONE', #33, .T. ) ;
#97 =( NAMED_UNIT ( * ) SI_UNIT ( $, .STERADIAN. ) SOLID_ANGLE_UNIT ( ) );
#98 =( LENGTH_UNIT ( ) NAMED_UNIT ( * ) SI_UNIT ( .MILLI., .METRE. ) );
#99 = COLOUR_RGB ( '',0.7921568627450980005, 0.8196078431372548767, 0.9333333333333333481 ) ;
#100 = CARTESIAN_POINT ( 'NONE',  ( 0.000000000000000000, 0.000000000000000000, 0.000000000000000000 ) ) ;
#101 = AXIS2_PLACEMENT_3D ( 'NONE', #29, #140, #160 ) ;
#102 = FILL_AREA_STYLE ('',( #183 ) ) ;
#103 = ORIENTED_EDGE ( 'NONE', *, *, #213, .T. ) ;
#104 = CIRCLE ( 'NONE', #91, 1.949999999999999956 ) ;
#105 = PRODUCT_RELATED_PRODUCT_CATEGORY ( 'part', '', ( #76 ) ) ;
#106 = LINE ( 'NONE', #71, #174 ) ;
#107 = DIRECTION ( 'NONE',  ( -0.000000000000000000, -0.000000000000000000, -1.000000000000000000 ) ) ;
#108 = AXIS2_PLACEMENT_3D ( 'NONE', #82, #126, #194 ) ;
#109 = CARTESIAN_POINT ( 'NONE',  ( -5.000000000000000000, 0.000000000000000000, 30.00000000000000000 ) ) ;
#110 = CARTESIAN_POINT ( 'NONE',  ( 0.000000000000000000, 0.000000000000000000, 0.000000000000000000 ) ) ;
#111 =( NAMED_UNIT ( * ) PLANE_ANGLE_UNIT ( ) SI_UNIT ( $, .RADIAN. ) );
#112 = PLANE ( 'NONE',  #190 ) ;
#113 = FACE_OUTER_BOUND ( 'NONE', #148, .T. ) ;
#114 = APPLICATION_PROTOCOL_DEFINITION ( 'draft international standard', 'automotive_design', 1998, #127 ) ;
#115 = PRODUCT_CONTEXT ( 'NONE', #127, 'mechanical' ) ;
#116 = EDGE_CURVE ( 'NONE', #167, #18, #83, .T. ) ;
#117 = LINE ( 'NONE', #188, #198 ) ;
#118 = CARTESIAN_POINT ( 'NONE',  ( -1.949999999999999956, 0.000000000000000000, 30.00000000000000000 ) ) ;
#119 = ORIENTED_EDGE ( 'NONE', *, *, #81, .F. ) ;
#120 = CARTESIAN_POINT ( 'NONE',  ( 0.000000000000000000, 0.000000000000000000, 0.000000000000000000 ) ) ;
#121 = VECTOR ( 'NONE', #95, 1000.000000000000000 ) ;
#122 = CYLINDRICAL_SURFACE ( 'NONE', #152, 1.949999999999999956 ) ;
#123 = CARTESIAN_POINT ( 'NONE',  ( 1.949999999999999956, 2.388061258337338643E-16, 30.00000000000000000 ) ) ;
#124 = FACE_OUTER_BOUND ( 'NONE', #199, .T. ) ;
#125 = CARTESIAN_POINT ( 'NONE',  ( 0.000000000000000000, 0.000000000000000000, 30.00000000000000000 ) ) ;
#126 = DIRECTION ( 'NONE',  ( 0.000000000000000000, 0.000000000000000000, 1.000000000000000000 ) ) ;
#127 = APPLICATION_CONTEXT ( 'automotive_design' ) ;
#128 = ADVANCED_FACE ( 'NONE', ( #193 ), #159, .F. ) ;
#129 =( GEOMETRIC_REPRESENTATION_CONTEXT ( 3 ) GLOBAL_UNCERTAINTY_ASSIGNED_CONTEXT ( ( #147 ) ) GLOBAL_UNIT_ASSIGNED_CONTEXT ( ( #98, #111, #85 ) ) REPRESENTATION_CONTEXT ( 'NONE', 'WORKASPACE' ) );
#130 = EDGE_LOOP ( 'NONE', ( #214, #136, #87, #189 ) ) ;
#131 = AXIS2_PLACEMENT_3D ( 'NONE', #110, #181, #142 ) ;
#132 = ADVANCED_FACE ( 'NONE', ( #124 ), #206, .T. ) ;
#133 = VERTEX_POINT ( 'NONE', #80 ) ;
#134 = CARTESIAN_POINT ( 'NONE',  ( 1.949999999999999956, 2.388061258337338643E-16, 0.000000000000000000 ) ) ;
#135 = STYLED_ITEM ( 'NONE', ( #201 ), #41 ) ;
#136 = ORIENTED_EDGE ( 'NONE', *, *, #81, .T. ) ;
#137 = ORIENTED_EDGE ( 'NONE', *, *, #203, .F. ) ;
#138 = CARTESIAN_POINT ( 'NONE',  ( 0.000000000000000000, 0.000000000000000000, 30.00000000000000000 ) ) ;
#139 = SURFACE_SIDE_STYLE ('',( #74 ) ) ;
#140 = DIRECTION ( 'NONE',  ( 0.000000000000000000, 0.000000000000000000, 1.000000000000000000 ) ) ;
#141 = APPLICATION_CONTEXT ( 'automotive_design' ) ;
#142 = DIRECTION ( 'NONE',  ( 1.000000000000000000, 0.000000000000000000, -0.000000000000000000 ) ) ;
#143 = DIRECTION ( 'NONE',  ( -0.000000000000000000, -0.000000000000000000, -1.000000000000000000 ) ) ;
#144 = DIRECTION ( 'NONE',  ( 1.000000000000000000, 0.000000000000000000, -0.000000000000000000 ) ) ;
#145 = DIRECTION ( 'NONE',  ( 1.000000000000000000, 0.000000000000000000, 0.000000000000000000 ) ) ;
#146 = ORIENTED_EDGE ( 'NONE', *, *, #92, .T. ) ;
#147 = UNCERTAINTY_MEASURE_WITH_UNIT (LENGTH_MEASURE( 1.000000000000000082E-05 ), #98, 'distance_accuracy_value', 'NONE');
#148 = EDGE_LOOP ( 'NONE', ( #171, #202 ) ) ;
#149 = STYLED_ITEM ( 'NONE', ( #195 ), #170 ) ;
#150 = CIRCLE ( 'NONE', #101, 1.949999999999999956 ) ;
#151 = VERTEX_POINT ( 'NONE', #57 ) ;
#152 = AXIS2_PLACEMENT_3D ( 'NONE', #153, #191, #19 ) ;
#153 = CARTESIAN_POINT ( 'NONE',  ( 0.000000000000000000, 0.000000000000000000, 30.00000000000000000 ) ) ;
#154 = AXIS2_PLACEMENT_3D ( 'NONE', #100, #158, #162 ) ;
#155 = ORIENTED_EDGE ( 'NONE', *, *, #203, .T. ) ;
#156 = DIRECTION ( 'NONE',  ( 1.000000000000000000, 0.000000000000000000, 0.000000000000000000 ) ) ;
#157 = EDGE_CURVE ( 'NONE', #18, #167, #69, .T. ) ;
#158 = DIRECTION ( 'NONE',  ( 0.000000000000000000, 0.000000000000000000, 1.000000000000000000 ) ) ;
#159 = CYLINDRICAL_SURFACE ( 'NONE', #40, 1.949999999999999956 ) ;
#160 = DIRECTION ( 'NONE',  ( 1.000000000000000000, 0.000000000000000000, 0.000000000000000000 ) ) ;
#161 = AXIS2_PLACEMENT_3D ( 'NONE', #63, #86, #66 ) ;
#162 = DIRECTION ( 'NONE',  ( 1.000000000000000000, 0.000000000000000000, 0.000000000000000000 ) ) ;
#163 = AXIS2_PLACEMENT_3D ( 'NONE', #26, #25, #209 ) ;
#164 = SURFACE_STYLE_FILL_AREA ( #102 ) ;
#165 = ADVANCED_FACE ( 'NONE', ( #94, #96 ), #46, .F. ) ;
#166 = UNCERTAINTY_MEASURE_WITH_UNIT (LENGTH_MEASURE( 1.000000000000000082E-05 ), #172, 'distance_accuracy_value', 'NONE');
#167 = VERTEX_POINT ( 'NONE', #59 ) ;
#168 = EDGE_CURVE ( 'NONE', #1, #65, #150, .T. ) ;
#169 = ORIENTED_EDGE ( 'NONE', *, *, #197, .T. ) ;
#170 = ADVANCED_BREP_SHAPE_REPRESENTATION ( 'coussinet_charniere_STP', ( #41, #161 ), #55 ) ;
#171 = ORIENTED_EDGE ( 'NONE', *, *, #157, .T. ) ;
#172 =( LENGTH_UNIT ( ) NAMED_UNIT ( * ) SI_UNIT ( .MILLI., .METRE. ) );
#173 =( NAMED_UNIT ( * ) PLANE_ANGLE_UNIT ( ) SI_UNIT ( $, .RADIAN. ) );
#174 = VECTOR ( 'NONE', #10, 1000.000000000000000 ) ;
#175 = FACE_OUTER_BOUND ( 'NONE', #212, .T. ) ;
#176 = ADVANCED_FACE ( 'NONE', ( #113, #7 ), #112, .T. ) ;
#177 = COLOUR_RGB ( '',0.7921568627450980005, 0.8196078431372548767, 0.9333333333333333481 ) ;
#178 =( LENGTH_UNIT ( ) NAMED_UNIT ( * ) SI_UNIT ( .MILLI., .METRE. ) );
#179 = DIRECTION ( 'NONE',  ( -0.000000000000000000, -0.000000000000000000, -1.000000000000000000 ) ) ;
#180 = LINE ( 'NONE', #123, #121 ) ;
#181 = DIRECTION ( 'NONE',  ( 0.000000000000000000, 0.000000000000000000, 1.000000000000000000 ) ) ;
#182 = PRODUCT_DEFINITION_FORMATION_WITH_SPECIFIED_SOURCE ( 'ANY', '', #76, .NOT_KNOWN. ) ;
#183 = FILL_AREA_STYLE_COLOUR ( '', #99 ) ;
#184 = AXIS2_PLACEMENT_3D ( 'NONE', #204, #93, #156 ) ;
#185 = AXIS2_PLACEMENT_3D ( 'NONE', #192, #84, #145 ) ;
#186 = ORIENTED_EDGE ( 'NONE', *, *, #44, .T. ) ;
#187 = SURFACE_STYLE_USAGE ( .BOTH. , #139 ) ;
#188 = CARTESIAN_POINT ( 'NONE',  ( -5.000000000000000000, 0.000000000000000000, 30.00000000000000000 ) ) ;
#189 = ORIENTED_EDGE ( 'NONE', *, *, #62, .F. ) ;
#190 = AXIS2_PLACEMENT_3D ( 'NONE', #125, #12, #144 ) ;
#191 = DIRECTION ( 'NONE',  ( -0.000000000000000000, -0.000000000000000000, -1.000000000000000000 ) ) ;
#192 = CARTESIAN_POINT ( 'NONE',  ( 0.000000000000000000, 0.000000000000000000, 30.00000000000000000 ) ) ;
#193 = FACE_OUTER_BOUND ( 'NONE', #38, .T. ) ;
#194 = DIRECTION ( 'NONE',  ( 1.000000000000000000, 0.000000000000000000, 0.000000000000000000 ) ) ;
#195 = PRESENTATION_STYLE_ASSIGNMENT (( #13 ) ) ;
#196 = ORIENTED_EDGE ( 'NONE', *, *, #31, .F. ) ;
#197 = EDGE_CURVE ( 'NONE', #89, #65, #180, .T. ) ;
#198 = VECTOR ( 'NONE', #6, 1000.000000000000000 ) ;
#199 = EDGE_LOOP ( 'NONE', ( #119, #24, #35, #155 ) ) ;
#200 = PRESENTATION_LAYER_ASSIGNMENT (  '', '', ( #135 ) ) ;
#201 = PRESENTATION_STYLE_ASSIGNMENT (( #187 ) ) ;
#202 = ORIENTED_EDGE ( 'NONE', *, *, #116, .T. ) ;
#203 = EDGE_CURVE ( 'NONE', #151, #133, #32, .T. ) ;
#204 = CARTESIAN_POINT ( 'NONE',  ( 0.000000000000000000, 0.000000000000000000, 0.000000000000000000 ) ) ;
#205 = CARTESIAN_POINT ( 'NONE',  ( 0.000000000000000000, 0.000000000000000000, 30.00000000000000000 ) ) ;
#206 = CYLINDRICAL_SURFACE ( 'NONE', #210, 5.000000000000000000 ) ;
#207 = DIRECTION ( 'NONE',  ( -1.000000000000000000, 0.000000000000000000, 0.000000000000000000 ) ) ;
#208 = SHAPE_DEFINITION_REPRESENTATION ( #60, #170 ) ;
#209 = DIRECTION ( 'NONE',  ( 1.000000000000000000, 0.000000000000000000, 0.000000000000000000 ) ) ;
#210 = AXIS2_PLACEMENT_3D ( 'NONE', #27, #143, #79 ) ;
#211 = CARTESIAN_POINT ( 'NONE',  ( 0.000000000000000000, 0.000000000000000000, 30.00000000000000000 ) ) ;
#212 = EDGE_LOOP ( 'NONE', ( #52, #186, #146, #196 ) ) ;
#213 = EDGE_CURVE ( 'NONE', #48, #89, #61, .T. ) ;
#214 = ORIENTED_EDGE ( 'NONE', *, *, #116, .F. ) ;
ENDSEC;
END-ISO-10303-21;
