ISO-10303-21;
HEADER;
FILE_DESCRIPTION (( 'STEP AP214' ),
    '1' );
FILE_NAME ('rondelle lame .STEP',
    '2023-06-19T22:00:43',
    ( '' ),
    ( '' ),
    'SwSTEP 2.0',
    'SolidWorks 2018',
    '' );
FILE_SCHEMA (( 'AUTOMOTIVE_DESIGN' ));
ENDSEC;

DATA;
#1 = CARTESIAN_POINT ( 'NONE',  ( 5.502656983963531165E-32, 2.000000000000000000, 0.000000000000000000 ) ) ;
#2 = AXIS2_PLACEMENT_3D ( 'NONE', #302, #94, #72 ) ;
#3 = DIRECTION ( 'NONE',  ( -2.751328491981765035E-32, -1.000000000000000000, -0.000000000000000000 ) ) ;
#4 = VERTEX_POINT ( 'NONE', #171 ) ;
#5 = ORIENTED_EDGE ( 'NONE', *, *, #102, .F. ) ;
#6 = VERTEX_POINT ( 'NONE', #24 ) ;
#7 = DIRECTION ( 'NONE',  ( 1.000000000000000000, 0.000000000000000000, 1.224646799147353207E-16 ) ) ;
#8 = CARTESIAN_POINT ( 'NONE',  ( 6.000000000000000000, -1.650797095189059021E-31, 0.000000000000000000 ) ) ;
#9 = DIRECTION ( 'NONE',  ( 2.751328491981765035E-32, 1.000000000000000000, 0.000000000000000000 ) ) ;
#10 = LINE ( 'NONE', #245, #30 ) ;
#11 = CONICAL_SURFACE ( 'NONE', #162, 31.50000000000000711, 1.478040006606752943 ) ;
#12 = AXIS2_PLACEMENT_3D ( 'NONE', #89, #110, #239 ) ;
#13 = DIRECTION ( 'NONE',  ( 2.751328491981765035E-32, 1.000000000000000000, 0.000000000000000000 ) ) ;
#14 = ORIENTED_EDGE ( 'NONE', *, *, #27, .T. ) ;
#15 = VERTEX_POINT ( 'NONE', #172 ) ;
#16 = DIRECTION ( 'NONE',  ( -1.000000000000000000, 2.751328491981765035E-32, 0.000000000000000000 ) ) ;
#17 = ADVANCED_BREP_SHAPE_REPRESENTATION ( 'rondelle lame ', ( #65, #124 ), #78 ) ;
#18 = ORIENTED_EDGE ( 'NONE', *, *, #197, .T. ) ;
#19 = AXIS2_PLACEMENT_3D ( 'NONE', #241, #358, #113 ) ;
#20 = ADVANCED_FACE ( 'NONE', ( #46 ), #213, .F. ) ;
#21 = CIRCLE ( 'NONE', #313, 14.15716120594961858 ) ;
#22 = ORIENTED_EDGE ( 'NONE', *, *, #35, .T. ) ;
#23 = FILL_AREA_STYLE ('',( #26 ) ) ;
#24 = CARTESIAN_POINT ( 'NONE',  ( 6.000000000000000888, 2.000000000000000000, 0.000000000000000000 ) ) ;
#25 = CYLINDRICAL_SURFACE ( 'NONE', #188, 31.50000000000000711 ) ;
#26 = FILL_AREA_STYLE_COLOUR ( '', #242 ) ;
#27 = EDGE_CURVE ( 'NONE', #15, #4, #21, .T. ) ;
#28 = APPLICATION_CONTEXT ( 'automotive_design' ) ;
#29 = PRODUCT_DEFINITION_FORMATION_WITH_SPECIFIED_SOURCE ( 'ANY', '', #101, .NOT_KNOWN. ) ;
#30 = VECTOR ( 'NONE', #93, 999.9999999999998863 ) ;
#31 = CIRCLE ( 'NONE', #252, 89.99999999999997158 ) ;
#32 = VERTEX_POINT ( 'NONE', #84 ) ;
#33 = EDGE_LOOP ( 'NONE', ( #332, #92, #214, #203 ) ) ;
#34 = CARTESIAN_POINT ( 'NONE',  ( -1.193198531291161063E-47, -4.336808689942026611E-16, 0.000000000000000000 ) ) ;
#35 = EDGE_CURVE ( 'NONE', #317, #6, #298, .T. ) ;
#36 = DIRECTION ( 'NONE',  ( -1.000000000000000000, 0.000000000000000000, 0.000000000000000000 ) ) ;
#37 = DIRECTION ( 'NONE',  ( 1.000000000000000000, 0.000000000000000000, 1.224646799147353207E-16 ) ) ;
#38 = VECTOR ( 'NONE', #247, 1000.000000000000000 ) ;
#39 = CARTESIAN_POINT ( 'NONE',  ( -1.193198531291161063E-47, -4.336808689942026611E-16, 0.000000000000000000 ) ) ;
#40 = CARTESIAN_POINT ( 'NONE',  ( 1.375664245990882408E-31, 4.999999999999999112, 0.000000000000000000 ) ) ;
#41 = AXIS2_PLACEMENT_3D ( 'NONE', #67, #201, #304 ) ;
#42 = ORIENTED_EDGE ( 'NONE', *, *, #329, .T. ) ;
#43 = DIRECTION ( 'NONE',  ( -2.751328491981765035E-32, -1.000000000000000000, -0.000000000000000000 ) ) ;
#44 = DIRECTION ( 'NONE',  ( 1.000000000000000000, 0.000000000000000000, 0.000000000000000000 ) ) ;
#45 = FILL_AREA_STYLE ('',( #207 ) ) ;
#46 = FACE_OUTER_BOUND ( 'NONE', #259, .T. ) ;
#47 = AXIS2_PLACEMENT_3D ( 'NONE', #182, #13, #273 ) ;
#48 = PRESENTATION_STYLE_ASSIGNMENT (( #191 ) ) ;
#49 = STYLED_ITEM ( 'NONE', ( #76 ), #17 ) ;
#50 = EDGE_CURVE ( 'NONE', #248, #285, #264, .T. ) ;
#51 = CARTESIAN_POINT ( 'NONE',  ( 1.819532585580815082E-31, 6.613287329679114812, 0.000000000000000000 ) ) ;
#52 = VECTOR ( 'NONE', #333, 999.9999999999998863 ) ;
#53 = CIRCLE ( 'NONE', #349, 6.000000000000000000 ) ;
#54 = EDGE_CURVE ( 'NONE', #339, #70, #116, .T. ) ;
#55 = ORIENTED_EDGE ( 'NONE', *, *, #132, .F. ) ;
#56 = PRODUCT_CONTEXT ( 'NONE', #184, 'mechanical' ) ;
#57 = CARTESIAN_POINT ( 'NONE',  ( 4.438683395899298272E-32, 1.613287329679103932, 0.000000000000000000 ) ) ;
#58 = VECTOR ( 'NONE', #190, 1000.000000000000000 ) ;
#59 = ORIENTED_EDGE ( 'NONE', *, *, #35, .F. ) ;
#60 = AXIS2_PLACEMENT_3D ( 'NONE', #74, #119, #178 ) ;
#61 = DIRECTION ( 'NONE',  ( -2.751328491981765035E-32, -1.000000000000000000, -0.000000000000000000 ) ) ;
#62 = FACE_OUTER_BOUND ( 'NONE', #112, .T. ) ;
#63 = DIRECTION ( 'NONE',  ( 1.000000000000000000, 0.000000000000000000, 0.000000000000000000 ) ) ;
#64 = DIRECTION ( 'NONE',  ( 0.000000000000000000, 0.000000000000000000, -1.000000000000000000 ) ) ;
#65 = MANIFOLD_SOLID_BREP ( 'Congé2', #286 ) ;
#66 = AXIS2_PLACEMENT_3D ( 'NONE', #253, #43, #98 ) ;
#67 = CARTESIAN_POINT ( 'NONE',  ( 1.925929944387234977E-31, 6.999999999999998224, 0.000000000000000000 ) ) ;
#68 = FACE_OUTER_BOUND ( 'NONE', #109, .T. ) ;
#69 = CARTESIAN_POINT ( 'NONE',  ( -6.000000000000001776, 2.000000000000000000, 7.347880794884121708E-16 ) ) ;
#70 = VERTEX_POINT ( 'NONE', #142 ) ;
#71 = CARTESIAN_POINT ( 'NONE',  ( 31.50000000000000711, -4.336808689942034992E-16, 0.000000000000000000 ) ) ;
#72 = DIRECTION ( 'NONE',  ( -1.000000000000000000, 2.751328491981765035E-32, 0.000000000000000000 ) ) ;
#73 = EDGE_CURVE ( 'NONE', #285, #248, #160, .T. ) ;
#74 = CARTESIAN_POINT ( 'NONE',  ( 0.000000000000000000, 0.000000000000000000, 0.000000000000000000 ) ) ;
#75 =( LENGTH_UNIT ( ) NAMED_UNIT ( * ) SI_UNIT ( .MILLI., .METRE. ) );
#76 = PRESENTATION_STYLE_ASSIGNMENT (( #282 ) ) ;
#77 = ORIENTED_EDGE ( 'NONE', *, *, #95, .F. ) ;
#78 =( GEOMETRIC_REPRESENTATION_CONTEXT ( 3 ) GLOBAL_UNCERTAINTY_ASSIGNED_CONTEXT ( ( #357 ) ) GLOBAL_UNIT_ASSIGNED_CONTEXT ( ( #75, #100, #127 ) ) REPRESENTATION_CONTEXT ( 'NONE', 'WORKASPACE' ) );
#79 = EDGE_LOOP ( 'NONE', ( #18, #229, #139, #237 ) ) ;
#80 = CIRCLE ( 'NONE', #19, 31.50000000000000711 ) ;
#81 = ORIENTED_EDGE ( 'NONE', *, *, #50, .F. ) ;
#82 = DIRECTION ( 'NONE',  ( 1.000000000000000000, 0.000000000000000000, 0.000000000000000000 ) ) ;
#83 = EDGE_LOOP ( 'NONE', ( #164, #189, #59, #55 ) ) ;
#84 = CARTESIAN_POINT ( 'NONE',  ( 6.000000000000000000, 7.000000000000000000, 0.000000000000000000 ) ) ;
#85 = DIRECTION ( 'NONE',  ( 0.9957012159921019290, -0.09262336892949778189, 0.000000000000000000 ) ) ;
#86 = EDGE_LOOP ( 'NONE', ( #218, #208, #250, #211 ) ) ;
#87 = CARTESIAN_POINT ( 'NONE',  ( -6.000000000000000000, 7.000000000000000000, 7.347880794884119736E-16 ) ) ;
#88 = EDGE_CURVE ( 'NONE', #154, #32, #53, .T. ) ;
#89 = CARTESIAN_POINT ( 'NONE',  ( -2.283597753995881817E-30, -82.99982210961003659, 0.000000000000000000 ) ) ;
#90 =( GEOMETRIC_REPRESENTATION_CONTEXT ( 3 ) GLOBAL_UNCERTAINTY_ASSIGNED_CONTEXT ( ( #255 ) ) GLOBAL_UNIT_ASSIGNED_CONTEXT ( ( #292, #138, #318 ) ) REPRESENTATION_CONTEXT ( 'NONE', 'WORKASPACE' ) );
#91 = DIRECTION ( 'NONE',  ( -2.751328491981765035E-32, -1.000000000000000000, -0.000000000000000000 ) ) ;
#92 = ORIENTED_EDGE ( 'NONE', *, *, #228, .T. ) ;
#93 = DIRECTION ( 'NONE',  ( -0.9957012159921019290, -0.09262336892949778189, 1.219382307071855146E-16 ) ) ;
#94 = DIRECTION ( 'NONE',  ( 2.751328491981765035E-32, 1.000000000000000000, 0.000000000000000000 ) ) ;
#95 = EDGE_CURVE ( 'NONE', #32, #154, #299, .T. ) ;
#96 = CARTESIAN_POINT ( 'NONE',  ( -2.421164178594969292E-30, -87.99982210961003659, 0.000000000000000000 ) ) ;
#97 = LINE ( 'NONE', #194, #206 ) ;
#98 = DIRECTION ( 'NONE',  ( 1.000000000000000000, -2.751328491981765035E-32, 0.000000000000000000 ) ) ;
#99 = ORIENTED_EDGE ( 'NONE', *, *, #107, .T. ) ;
#100 =( NAMED_UNIT ( * ) PLANE_ANGLE_UNIT ( ) SI_UNIT ( $, .RADIAN. ) );
#101 = PRODUCT ( 'rondelle lame ', 'rondelle lame ', '', ( #56 ) ) ;
#102 = EDGE_CURVE ( 'NONE', #248, #154, #170, .T. ) ;
#103 = FACE_OUTER_BOUND ( 'NONE', #271, .T. ) ;
#104 = ORIENTED_EDGE ( 'NONE', *, *, #88, .F. ) ;
#105 = AXIS2_PLACEMENT_3D ( 'NONE', #39, #331, #297 ) ;
#106 = CYLINDRICAL_SURFACE ( 'NONE', #66, 31.50000000000000711 ) ;
#107 = EDGE_CURVE ( 'NONE', #6, #317, #147, .T. ) ;
#108 = DIRECTION ( 'NONE',  ( -1.000000000000000000, 0.000000000000000000, 0.000000000000000000 ) ) ;
#109 = EDGE_LOOP ( 'NONE', ( #275, #81, #177, #143 ) ) ;
#110 = DIRECTION ( 'NONE',  ( 2.751328491981765035E-32, 1.000000000000000000, 0.000000000000000000 ) ) ;
#111 = STYLED_ITEM ( 'NONE', ( #48 ), #65 ) ;
#112 = EDGE_LOOP ( 'NONE', ( #104, #42, #22, #187 ) ) ;
#113 = DIRECTION ( 'NONE',  ( 1.000000000000000000, -2.751328491981765035E-32, 0.000000000000000000 ) ) ;
#114 = LINE ( 'NONE', #301, #38 ) ;
#115 = CONICAL_SURFACE ( 'NONE', #146, 10.00000000000000000, 1.478040006606752943 ) ;
#116 = LINE ( 'NONE', #168, #58 ) ;
#117 = ORIENTED_EDGE ( 'NONE', *, *, #179, .T. ) ;
#118 = PRODUCT_RELATED_PRODUCT_CATEGORY ( 'part', '', ( #101 ) ) ;
#119 = DIRECTION ( 'NONE',  ( -2.751328491981765035E-32, -1.000000000000000000, -0.000000000000000000 ) ) ;
#120 = AXIS2_PLACEMENT_3D ( 'NONE', #216, #262, #261 ) ;
#121 = SURFACE_STYLE_FILL_AREA ( #23 ) ;
#122 = ORIENTED_EDGE ( 'NONE', *, *, #296, .T. ) ;
#123 = CARTESIAN_POINT ( 'NONE',  ( -31.50000000000000711, 4.999999999999999112, 3.857637417314163478E-15 ) ) ;
#124 = AXIS2_PLACEMENT_3D ( 'NONE', #278, #180, #82 ) ;
#125 = CARTESIAN_POINT ( 'NONE',  ( 1.375664245990882408E-31, 4.999999999999999112, 0.000000000000000000 ) ) ;
#126 = EDGE_CURVE ( 'NONE', #290, #70, #80, .T. ) ;
#127 =( NAMED_UNIT ( * ) SI_UNIT ( $, .STERADIAN. ) SOLID_ANGLE_UNIT ( ) );
#128 = ADVANCED_FACE ( 'NONE', ( #131 ), #11, .F. ) ;
#129 = FACE_OUTER_BOUND ( 'NONE', #33, .T. ) ;
#130 = SURFACE_SIDE_STYLE ('',( #220 ) ) ;
#131 = FACE_OUTER_BOUND ( 'NONE', #155, .T. ) ;
#132 = EDGE_CURVE ( 'NONE', #4, #317, #350, .T. ) ;
#133 = ADVANCED_FACE ( 'NONE', ( #212 ), #233, .T. ) ;
#134 = ORIENTED_EDGE ( 'NONE', *, *, #197, .F. ) ;
#135 = AXIS2_PLACEMENT_3D ( 'NONE', #354, #64, #36 ) ;
#136 = ADVANCED_FACE ( 'NONE', ( #129 ), #25, .T. ) ;
#137 = FACE_OUTER_BOUND ( 'NONE', #83, .T. ) ;
#138 =( NAMED_UNIT ( * ) PLANE_ANGLE_UNIT ( ) SI_UNIT ( $, .RADIAN. ) );
#139 = ORIENTED_EDGE ( 'NONE', *, *, #126, .F. ) ;
#140 = DIRECTION ( 'NONE',  ( 1.000000000000000000, 0.000000000000000000, 0.000000000000000000 ) ) ;
#141 = AXIS2_PLACEMENT_3D ( 'NONE', #1, #91, #63 ) ;
#142 = CARTESIAN_POINT ( 'NONE',  ( -31.50000000000000711, -4.336808689942017736E-16, 3.857637417314163478E-15 ) ) ;
#143 = ORIENTED_EDGE ( 'NONE', *, *, #88, .T. ) ;
#144 = CARTESIAN_POINT ( 'NONE',  ( 10.00000000000000000, 6.999999999999998224, 0.000000000000000000 ) ) ;
#145 = DIRECTION ( 'NONE',  ( -2.751328491981765035E-32, -1.000000000000000000, -0.000000000000000000 ) ) ;
#146 = AXIS2_PLACEMENT_3D ( 'NONE', #328, #145, #270 ) ;
#147 = CIRCLE ( 'NONE', #141, 6.000000000000000888 ) ;
#148 = EDGE_CURVE ( 'NONE', #70, #290, #269, .T. ) ;
#149 = ORIENTED_EDGE ( 'NONE', *, *, #95, .T. ) ;
#150 = EDGE_CURVE ( 'NONE', #285, #356, #314, .T. ) ;
#151 = VECTOR ( 'NONE', #274, 999.9999999999998863 ) ;
#152 = DIRECTION ( 'NONE',  ( 1.000000000000000000, 0.000000000000000000, 0.000000000000000000 ) ) ;
#153 = DIRECTION ( 'NONE',  ( 1.000000000000000000, 0.000000000000000000, 0.000000000000000000 ) ) ;
#154 = VERTEX_POINT ( 'NONE', #87 ) ;
#155 = EDGE_LOOP ( 'NONE', ( #14, #122, #276, #319 ) ) ;
#156 =( NAMED_UNIT ( * ) SI_UNIT ( $, .STERADIAN. ) SOLID_ANGLE_UNIT ( ) );
#157 = APPLICATION_PROTOCOL_DEFINITION ( 'draft international standard', 'automotive_design', 1998, #184 ) ;
#158 = CARTESIAN_POINT ( 'NONE',  ( 1.925929944387235634E-31, 7.000000000000000000, 0.000000000000000000 ) ) ;
#159 = CIRCLE ( 'NONE', #192, 31.50000000000000711 ) ;
#160 = CIRCLE ( 'NONE', #217, 14.15716120594951200 ) ;
#161 = EDGE_LOOP ( 'NONE', ( #326, #202, #287, #238 ) ) ;
#162 = AXIS2_PLACEMENT_3D ( 'NONE', #34, #61, #327 ) ;
#163 = CIRCLE ( 'NONE', #344, 89.99999999999997158 ) ;
#164 = ORIENTED_EDGE ( 'NONE', *, *, #27, .F. ) ;
#165 = UNCERTAINTY_MEASURE_WITH_UNIT (LENGTH_MEASURE( 1.000000000000000082E-05 ), #310, 'distance_accuracy_value', 'NONE');
#166 = CARTESIAN_POINT ( 'NONE',  ( 5.502656983963531165E-32, 2.000000000000000000, 0.000000000000000000 ) ) ;
#167 = AXIS2_PLACEMENT_3D ( 'NONE', #51, #231, #108 ) ;
#168 = CARTESIAN_POINT ( 'NONE',  ( -31.50000000000000711, 8.666684749742561339E-31, 3.857637417314163478E-15 ) ) ;
#169 = FACE_OUTER_BOUND ( 'NONE', #258, .T. ) ;
#170 = CIRCLE ( 'NONE', #222, 89.99999999999997158 ) ;
#171 = CARTESIAN_POINT ( 'NONE',  ( -14.15716120594961858, 1.613287329679103932, 2.795694816451045537E-15 ) ) ;
#172 = CARTESIAN_POINT ( 'NONE',  ( 14.15716120594961858, 1.613287329679103932, 0.000000000000000000 ) ) ;
#173 = EDGE_CURVE ( 'NONE', #15, #6, #31, .T. ) ;
#174 = CIRCLE ( 'NONE', #283, 14.15716120594961858 ) ;
#175 = EDGE_LOOP ( 'NONE', ( #300, #234, #149, #5 ) ) ;
#176 = CARTESIAN_POINT ( 'NONE',  ( 5.821058002294820177, -87.99982210961003659, 7.128740050161437958E-16 ) ) ;
#177 = ORIENTED_EDGE ( 'NONE', *, *, #102, .T. ) ;
#178 = DIRECTION ( 'NONE',  ( 1.000000000000000000, -2.751328491981765035E-32, 0.000000000000000000 ) ) ;
#179 = EDGE_CURVE ( 'NONE', #15, #290, #97, .T. ) ;
#180 = DIRECTION ( 'NONE',  ( 0.000000000000000000, 0.000000000000000000, 1.000000000000000000 ) ) ;
#181 = TOROIDAL_SURFACE ( 'NONE', #257, 5.821058002294820177, 89.99999999999997158 ) ;
#182 = CARTESIAN_POINT ( 'NONE',  ( -2.283597753995881817E-30, -82.99982210961003659, 0.000000000000000000 ) ) ;
#183 = DIRECTION ( 'NONE',  ( -2.751328491981765035E-32, -1.000000000000000000, -0.000000000000000000 ) ) ;
#184 = APPLICATION_CONTEXT ( 'automotive_design' ) ;
#185 = ADVANCED_FACE ( 'NONE', ( #280 ), #115, .T. ) ;
#186 = ADVANCED_FACE ( 'NONE', ( #169 ), #316, .F. ) ;
#187 = ORIENTED_EDGE ( 'NONE', *, *, #277, .F. ) ;
#188 = AXIS2_PLACEMENT_3D ( 'NONE', #355, #240, #266 ) ;
#189 = ORIENTED_EDGE ( 'NONE', *, *, #173, .T. ) ;
#190 = DIRECTION ( 'NONE',  ( -2.751328491981765035E-32, -1.000000000000000000, -0.000000000000000000 ) ) ;
#191 = SURFACE_STYLE_USAGE ( .BOTH. , #256 ) ;
#192 = AXIS2_PLACEMENT_3D ( 'NONE', #40, #183, #152 ) ;
#193 = CARTESIAN_POINT ( 'NONE',  ( -1.193198531291161063E-47, -4.336808689942026611E-16, 0.000000000000000000 ) ) ;
#194 = CARTESIAN_POINT ( 'NONE',  ( 31.50000000000000711, -4.336808689942034992E-16, 0.000000000000000000 ) ) ;
#195 = LINE ( 'NONE', #8, #254 ) ;
#196 = DIRECTION ( 'NONE',  ( -2.751328491981765035E-32, -1.000000000000000000, -0.000000000000000000 ) ) ;
#197 = EDGE_CURVE ( 'NONE', #356, #339, #284, .T. ) ;
#198 = DIRECTION ( 'NONE',  ( -1.224646799147353207E-16, 3.369405631108382614E-48, 1.000000000000000000 ) ) ;
#199 = DIRECTION ( 'NONE',  ( -1.000000000000000000, 0.000000000000000000, 0.000000000000000000 ) ) ;
#200 = VECTOR ( 'NONE', #205, 1000.000000000000000 ) ;
#201 = DIRECTION ( 'NONE',  ( -2.751328491981765035E-32, -1.000000000000000000, -0.000000000000000000 ) ) ;
#202 = ORIENTED_EDGE ( 'NONE', *, *, #50, .T. ) ;
#203 = ORIENTED_EDGE ( 'NONE', *, *, #148, .F. ) ;
#204 = DIRECTION ( 'NONE',  ( -2.751328491981765035E-32, -1.000000000000000000, -0.000000000000000000 ) ) ;
#205 = DIRECTION ( 'NONE',  ( -2.751328491981765035E-32, -1.000000000000000000, -0.000000000000000000 ) ) ;
#206 = VECTOR ( 'NONE', #85, 999.9999999999998863 ) ;
#207 = FILL_AREA_STYLE_COLOUR ( '', #225 ) ;
#208 = ORIENTED_EDGE ( 'NONE', *, *, #209, .F. ) ;
#209 = EDGE_CURVE ( 'NONE', #4, #15, #174, .T. ) ;
#210 = ORIENTED_EDGE ( 'NONE', *, *, #73, .T. ) ;
#211 = ORIENTED_EDGE ( 'NONE', *, *, #107, .F. ) ;
#212 = FACE_OUTER_BOUND ( 'NONE', #175, .T. ) ;
#213 = CYLINDRICAL_SURFACE ( 'NONE', #120, 6.000000000000000000 ) ;
#214 = ORIENTED_EDGE ( 'NONE', *, *, #320, .T. ) ;
#215 = MECHANICAL_DESIGN_GEOMETRIC_PRESENTATION_REPRESENTATION (  '', ( #111 ), #90 ) ;
#216 = CARTESIAN_POINT ( 'NONE',  ( 0.000000000000000000, 0.000000000000000000, 0.000000000000000000 ) ) ;
#217 = AXIS2_PLACEMENT_3D ( 'NONE', #340, #3, #199 ) ;
#218 = ORIENTED_EDGE ( 'NONE', *, *, #173, .F. ) ;
#219 = DIRECTION ( 'NONE',  ( -1.000000000000000000, 0.000000000000000000, 0.000000000000000000 ) ) ;
#220 = SURFACE_STYLE_FILL_AREA ( #45 ) ;
#221 = ORIENTED_EDGE ( 'NONE', *, *, #126, .T. ) ;
#222 = AXIS2_PLACEMENT_3D ( 'NONE', #324, #244, #219 ) ;
#223 = CARTESIAN_POINT ( 'NONE',  ( 5.821058002294714484, -82.99982210961003659, 7.128740050161307796E-16 ) ) ;
#224 = CARTESIAN_POINT ( 'NONE',  ( 4.438683395899298272E-32, 1.613287329679103932, 0.000000000000000000 ) ) ;
#225 = COLOUR_RGB ( '',0.5294117647058823595, 0.5490196078431373028, 0.5490196078431373028 ) ;
#226 = CARTESIAN_POINT ( 'NONE',  ( -10.00000000000000000, 6.999999999999998224, 1.224646799147353256E-15 ) ) ;
#227 =( GEOMETRIC_REPRESENTATION_CONTEXT ( 3 ) GLOBAL_UNCERTAINTY_ASSIGNED_CONTEXT ( ( #165 ) ) GLOBAL_UNIT_ASSIGNED_CONTEXT ( ( #310, #309, #156 ) ) REPRESENTATION_CONTEXT ( 'NONE', 'WORKASPACE' ) );
#228 = EDGE_CURVE ( 'NONE', #339, #356, #159, .T. ) ;
#229 = ORIENTED_EDGE ( 'NONE', *, *, #54, .T. ) ;
#230 = PRODUCT_DEFINITION_SHAPE ( 'NONE', 'NONE',  #325 ) ;
#231 = DIRECTION ( 'NONE',  ( -2.751328491981765035E-32, -1.000000000000000000, -0.000000000000000000 ) ) ;
#232 = ADVANCED_FACE ( 'NONE', ( #137 ), #295, .F. ) ;
#233 = TOROIDAL_SURFACE ( 'NONE', #12, 5.821058002294714484, 89.99999999999997158 ) ;
#234 = ORIENTED_EDGE ( 'NONE', *, *, #267, .T. ) ;
#235 = DIRECTION ( 'NONE',  ( -1.000000000000000000, 0.000000000000000000, 0.000000000000000000 ) ) ;
#236 = FACE_OUTER_BOUND ( 'NONE', #79, .T. ) ;
#237 = ORIENTED_EDGE ( 'NONE', *, *, #320, .F. ) ;
#238 = ORIENTED_EDGE ( 'NONE', *, *, #228, .F. ) ;
#239 = DIRECTION ( 'NONE',  ( -1.000000000000000000, 2.751328491981765035E-32, 0.000000000000000000 ) ) ;
#240 = DIRECTION ( 'NONE',  ( -2.751328491981765035E-32, -1.000000000000000000, -0.000000000000000000 ) ) ;
#241 = CARTESIAN_POINT ( 'NONE',  ( -1.193198531291161063E-47, -4.336808689942026611E-16, 0.000000000000000000 ) ) ;
#242 = COLOUR_RGB ( '',0.5294117647058823595, 0.5490196078431373028, 0.5490196078431373028 ) ;
#243 = AXIS2_PLACEMENT_3D ( 'NONE', #193, #196, #272 ) ;
#244 = DIRECTION ( 'NONE',  ( 0.000000000000000000, 0.000000000000000000, -1.000000000000000000 ) ) ;
#245 = CARTESIAN_POINT ( 'NONE',  ( -31.50000000000000711, -4.336808689942017736E-16, 3.857637417314163478E-15 ) ) ;
#246 = CARTESIAN_POINT ( 'NONE',  ( 1.925929944387235634E-31, 7.000000000000000000, 0.000000000000000000 ) ) ;
#247 = DIRECTION ( 'NONE',  ( -2.751328491981765035E-32, -1.000000000000000000, -0.000000000000000000 ) ) ;
#248 = VERTEX_POINT ( 'NONE', #341 ) ;
#249 = DIRECTION ( 'NONE',  ( -1.000000000000000000, 0.000000000000000000, 0.000000000000000000 ) ) ;
#250 = ORIENTED_EDGE ( 'NONE', *, *, #132, .T. ) ;
#251 = ORIENTED_EDGE ( 'NONE', *, *, #150, .F. ) ;
#252 = AXIS2_PLACEMENT_3D ( 'NONE', #176, #268, #37 ) ;
#253 = CARTESIAN_POINT ( 'NONE',  ( 0.000000000000000000, 0.000000000000000000, 0.000000000000000000 ) ) ;
#254 = VECTOR ( 'NONE', #204, 1000.000000000000000 ) ;
#255 = UNCERTAINTY_MEASURE_WITH_UNIT (LENGTH_MEASURE( 1.000000000000000082E-05 ), #292, 'distance_accuracy_value', 'NONE');
#256 = SURFACE_SIDE_STYLE ('',( #121 ) ) ;
#257 = AXIS2_PLACEMENT_3D ( 'NONE', #96, #305, #16 ) ;
#258 = EDGE_LOOP ( 'NONE', ( #346, #352, #117, #221 ) ) ;
#259 = EDGE_LOOP ( 'NONE', ( #265, #77, #306, #99 ) ) ;
#260 = AXIS2_PLACEMENT_3D ( 'NONE', #125, #308, #44 ) ;
#261 = DIRECTION ( 'NONE',  ( 1.000000000000000000, -2.751328491981765035E-32, 0.000000000000000000 ) ) ;
#262 = DIRECTION ( 'NONE',  ( -2.751328491981765035E-32, -1.000000000000000000, -0.000000000000000000 ) ) ;
#263 = LINE ( 'NONE', #338, #200 ) ;
#264 = CIRCLE ( 'NONE', #167, 14.15716120594951200 ) ;
#265 = ORIENTED_EDGE ( 'NONE', *, *, #329, .F. ) ;
#266 = DIRECTION ( 'NONE',  ( 1.000000000000000000, -2.751328491981765035E-32, 0.000000000000000000 ) ) ;
#267 = EDGE_CURVE ( 'NONE', #285, #32, #163, .T. ) ;
#268 = DIRECTION ( 'NONE',  ( -1.224646799147353207E-16, 3.369405631108382614E-48, 1.000000000000000000 ) ) ;
#269 = CIRCLE ( 'NONE', #105, 31.50000000000000711 ) ;
#270 = DIRECTION ( 'NONE',  ( 1.000000000000000000, 0.000000000000000000, 0.000000000000000000 ) ) ;
#271 = EDGE_LOOP ( 'NONE', ( #210, #291, #134, #251 ) ) ;
#272 = DIRECTION ( 'NONE',  ( 1.000000000000000000, -2.751328491981765035E-32, 0.000000000000000000 ) ) ;
#273 = DIRECTION ( 'NONE',  ( -1.000000000000000000, 2.751328491981765035E-32, 0.000000000000000000 ) ) ;
#274 = DIRECTION ( 'NONE',  ( -0.9957012159921019290, -0.09262336892949778189, 1.219382307071855146E-16 ) ) ;
#275 = ORIENTED_EDGE ( 'NONE', *, *, #267, .F. ) ;
#276 = ORIENTED_EDGE ( 'NONE', *, *, #148, .T. ) ;
#277 = EDGE_CURVE ( 'NONE', #32, #6, #195, .T. ) ;
#278 = CARTESIAN_POINT ( 'NONE',  ( 0.000000000000000000, 0.000000000000000000, 0.000000000000000000 ) ) ;
#279 = ADVANCED_FACE ( 'NONE', ( #62 ), #330, .F. ) ;
#280 = FACE_OUTER_BOUND ( 'NONE', #161, .T. ) ;
#281 = CARTESIAN_POINT ( 'NONE',  ( 31.50000000000000711, 4.999999999999999112, 0.000000000000000000 ) ) ;
#282 = SURFACE_STYLE_USAGE ( .BOTH. , #130 ) ;
#283 = AXIS2_PLACEMENT_3D ( 'NONE', #224, #9, #249 ) ;
#284 = CIRCLE ( 'NONE', #260, 31.50000000000000711 ) ;
#285 = VERTEX_POINT ( 'NONE', #334 ) ;
#286 = CLOSED_SHELL ( 'NONE', ( #232, #133, #288, #128, #293, #279, #20, #185, #186, #136, #312, #348 ) ) ;
#287 = ORIENTED_EDGE ( 'NONE', *, *, #150, .T. ) ;
#288 = ADVANCED_FACE ( 'NONE', ( #236 ), #106, .T. ) ;
#289 = AXIS2_PLACEMENT_3D ( 'NONE', #166, #294, #351 ) ;
#290 = VERTEX_POINT ( 'NONE', #71 ) ;
#291 = ORIENTED_EDGE ( 'NONE', *, *, #307, .T. ) ;
#292 =( LENGTH_UNIT ( ) NAMED_UNIT ( * ) SI_UNIT ( .MILLI., .METRE. ) );
#293 = ADVANCED_FACE ( 'NONE', ( #103 ), #311, .T. ) ;
#294 = DIRECTION ( 'NONE',  ( -2.751328491981765035E-32, -1.000000000000000000, -0.000000000000000000 ) ) ;
#295 = TOROIDAL_SURFACE ( 'NONE', #2, 5.821058002294820177, 89.99999999999997158 ) ;
#296 = EDGE_CURVE ( 'NONE', #4, #70, #10, .T. ) ;
#297 = DIRECTION ( 'NONE',  ( 1.000000000000000000, -2.751328491981765035E-32, 0.000000000000000000 ) ) ;
#298 = CIRCLE ( 'NONE', #289, 6.000000000000000888 ) ;
#299 = CIRCLE ( 'NONE', #353, 6.000000000000000000 ) ;
#300 = ORIENTED_EDGE ( 'NONE', *, *, #73, .F. ) ;
#301 = CARTESIAN_POINT ( 'NONE',  ( 31.50000000000000711, -8.666684749742561339E-31, 0.000000000000000000 ) ) ;
#302 = CARTESIAN_POINT ( 'NONE',  ( -2.421164178594969292E-30, -87.99982210961003659, 0.000000000000000000 ) ) ;
#303 = DIRECTION ( 'NONE',  ( -2.751328491981765035E-32, -1.000000000000000000, -0.000000000000000000 ) ) ;
#304 = DIRECTION ( 'NONE',  ( 1.000000000000000000, 0.000000000000000000, 0.000000000000000000 ) ) ;
#305 = DIRECTION ( 'NONE',  ( 2.751328491981765035E-32, 1.000000000000000000, 0.000000000000000000 ) ) ;
#306 = ORIENTED_EDGE ( 'NONE', *, *, #277, .T. ) ;
#307 = EDGE_CURVE ( 'NONE', #248, #339, #342, .T. ) ;
#308 = DIRECTION ( 'NONE',  ( -2.751328491981765035E-32, -1.000000000000000000, -0.000000000000000000 ) ) ;
#309 =( NAMED_UNIT ( * ) PLANE_ANGLE_UNIT ( ) SI_UNIT ( $, .RADIAN. ) );
#310 =( LENGTH_UNIT ( ) NAMED_UNIT ( * ) SI_UNIT ( .MILLI., .METRE. ) );
#311 = CONICAL_SURFACE ( 'NONE', #41, 10.00000000000000000, 1.478040006606752943 ) ;
#312 = ADVANCED_FACE ( 'NONE', ( #68 ), #336, .T. ) ;
#313 = AXIS2_PLACEMENT_3D ( 'NONE', #57, #321, #235 ) ;
#314 = LINE ( 'NONE', #144, #52 ) ;
#315 = PRESENTATION_LAYER_ASSIGNMENT (  '', '', ( #49 ) ) ;
#316 = CONICAL_SURFACE ( 'NONE', #243, 31.50000000000000711, 1.478040006606752943 ) ;
#317 = VERTEX_POINT ( 'NONE', #69 ) ;
#318 =( NAMED_UNIT ( * ) SI_UNIT ( $, .STERADIAN. ) SOLID_ANGLE_UNIT ( ) );
#319 = ORIENTED_EDGE ( 'NONE', *, *, #179, .F. ) ;
#320 = EDGE_CURVE ( 'NONE', #356, #290, #114, .T. ) ;
#321 = DIRECTION ( 'NONE',  ( 2.751328491981765035E-32, 1.000000000000000000, 0.000000000000000000 ) ) ;
#322 = APPLICATION_PROTOCOL_DEFINITION ( 'draft international standard', 'automotive_design', 1998, #28 ) ;
#323 = SHAPE_DEFINITION_REPRESENTATION ( #230, #17 ) ;
#324 = CARTESIAN_POINT ( 'NONE',  ( -5.821058002294714484, -82.99982210961003659, 0.000000000000000000 ) ) ;
#325 = PRODUCT_DEFINITION ( 'UNKNOWN', '', #29, #347 ) ;
#326 = ORIENTED_EDGE ( 'NONE', *, *, #307, .F. ) ;
#327 = DIRECTION ( 'NONE',  ( 1.000000000000000000, -2.751328491981765035E-32, 0.000000000000000000 ) ) ;
#328 = CARTESIAN_POINT ( 'NONE',  ( 1.925929944387234977E-31, 6.999999999999998224, 0.000000000000000000 ) ) ;
#329 = EDGE_CURVE ( 'NONE', #154, #317, #263, .T. ) ;
#330 = CYLINDRICAL_SURFACE ( 'NONE', #60, 6.000000000000000000 ) ;
#331 = DIRECTION ( 'NONE',  ( -2.751328491981765035E-32, -1.000000000000000000, -0.000000000000000000 ) ) ;
#332 = ORIENTED_EDGE ( 'NONE', *, *, #54, .F. ) ;
#333 = DIRECTION ( 'NONE',  ( 0.9957012159921019290, -0.09262336892949778189, 0.000000000000000000 ) ) ;
#334 = CARTESIAN_POINT ( 'NONE',  ( 14.15716120594951200, 6.613287329679114812, 0.000000000000000000 ) ) ;
#335 = MECHANICAL_DESIGN_GEOMETRIC_PRESENTATION_REPRESENTATION (  '', ( #49 ), #227 ) ;
#336 = TOROIDAL_SURFACE ( 'NONE', #47, 5.821058002294714484, 89.99999999999997158 ) ;
#337 = PRESENTATION_LAYER_ASSIGNMENT (  '', '', ( #111 ) ) ;
#338 = CARTESIAN_POINT ( 'NONE',  ( -6.000000000000000000, 1.650797095189059021E-31, 7.347880794884119736E-16 ) ) ;
#339 = VERTEX_POINT ( 'NONE', #123 ) ;
#340 = CARTESIAN_POINT ( 'NONE',  ( 1.819532585580815082E-31, 6.613287329679114812, 0.000000000000000000 ) ) ;
#341 = CARTESIAN_POINT ( 'NONE',  ( -14.15716120594951200, 6.613287329679114812, 2.795694816451039226E-15 ) ) ;
#342 = LINE ( 'NONE', #226, #151 ) ;
#343 = DIRECTION ( 'NONE',  ( -2.751328491981765035E-32, -1.000000000000000000, -0.000000000000000000 ) ) ;
#344 = AXIS2_PLACEMENT_3D ( 'NONE', #223, #198, #7 ) ;
#345 = FACE_OUTER_BOUND ( 'NONE', #86, .T. ) ;
#346 = ORIENTED_EDGE ( 'NONE', *, *, #296, .F. ) ;
#347 = PRODUCT_DEFINITION_CONTEXT ( 'detailed design', #28, 'design' ) ;
#348 = ADVANCED_FACE ( 'NONE', ( #345 ), #181, .F. ) ;
#349 = AXIS2_PLACEMENT_3D ( 'NONE', #246, #303, #153 ) ;
#350 = CIRCLE ( 'NONE', #135, 89.99999999999997158 ) ;
#351 = DIRECTION ( 'NONE',  ( 1.000000000000000000, 0.000000000000000000, 0.000000000000000000 ) ) ;
#352 = ORIENTED_EDGE ( 'NONE', *, *, #209, .T. ) ;
#353 = AXIS2_PLACEMENT_3D ( 'NONE', #158, #343, #140 ) ;
#354 = CARTESIAN_POINT ( 'NONE',  ( -5.821058002294820177, -87.99982210961003659, 0.000000000000000000 ) ) ;
#355 = CARTESIAN_POINT ( 'NONE',  ( 0.000000000000000000, 0.000000000000000000, 0.000000000000000000 ) ) ;
#356 = VERTEX_POINT ( 'NONE', #281 ) ;
#357 = UNCERTAINTY_MEASURE_WITH_UNIT (LENGTH_MEASURE( 1.000000000000000082E-05 ), #75, 'distance_accuracy_value', 'NONE');
#358 = DIRECTION ( 'NONE',  ( -2.751328491981765035E-32, -1.000000000000000000, -0.000000000000000000 ) ) ;
ENDSEC;
END-ISO-10303-21;
