ISO-10303-21;
HEADER;
/* Generated by software containing ST-Developer
 * from STEP Tools, Inc. (www.steptools.com) 
 */

FILE_DESCRIPTION(
/* description */ (''),
/* implementation_level */ '2;1');

FILE_NAME(
/* name */ 'Adaptateur Tongsheng US BB v2.step',
/* time_stamp */ '2023-06-20T17:19:46+02:00',
/* author */ (''),
/* organization */ (''),
/* preprocessor_version */ 'ST-DEVELOPER v19.2',
/* originating_system */ 'Autodesk Translation Framework v12.6.0.85',
/* authorisation */ '');

FILE_SCHEMA (('AUTOMOTIVE_DESIGN { 1 0 10303 214 3 1 1 }'));
ENDSEC;

DATA;
#10=MECHANICAL_DESIGN_GEOMETRIC_PRESENTATION_REPRESENTATION('',(#17),#259);
#11=ITEM_DEFINED_TRANSFORMATION($,$,#150,#169);
#12=(
REPRESENTATION_RELATIONSHIP($,$,#270,#269)
REPRESENTATION_RELATIONSHIP_WITH_TRANSFORMATION(#11)
SHAPE_REPRESENTATION_RELATIONSHIP()
);
#13=CONTEXT_DEPENDENT_SHAPE_REPRESENTATION(#12,#268);
#14=NEXT_ASSEMBLY_USAGE_OCCURRENCE('Composant1:1','Composant1:1',
'Composant1:1',#272,#273,'Composant1:1');
#15=SHAPE_REPRESENTATION_RELATIONSHIP('SRR','None',#270,#16);
#16=ADVANCED_BREP_SHAPE_REPRESENTATION('',(#18),#258);
#17=STYLED_ITEM('',(#283),#18);
#18=MANIFOLD_SOLID_BREP('Corps1',#136);
#19=FACE_BOUND('',#40,.T.);
#20=FACE_BOUND('',#43,.T.);
#21=FACE_BOUND('',#47,.T.);
#22=PLANE('',#156);
#23=PLANE('',#160);
#24=PLANE('',#166);
#25=CYLINDRICAL_SURFACE('',#154,28.);
#26=CYLINDRICAL_SURFACE('',#165,25.7);
#27=CYLINDRICAL_SURFACE('',#168,16.8);
#28=FACE_OUTER_BOUND('',#37,.T.);
#29=FACE_OUTER_BOUND('',#38,.T.);
#30=FACE_OUTER_BOUND('',#39,.T.);
#31=FACE_OUTER_BOUND('',#41,.T.);
#32=FACE_OUTER_BOUND('',#42,.T.);
#33=FACE_OUTER_BOUND('',#44,.T.);
#34=FACE_OUTER_BOUND('',#45,.T.);
#35=FACE_OUTER_BOUND('',#46,.T.);
#36=FACE_OUTER_BOUND('',#48,.T.);
#37=EDGE_LOOP('',(#94,#95,#96,#97));
#38=EDGE_LOOP('',(#98,#99,#100,#101));
#39=EDGE_LOOP('',(#102));
#40=EDGE_LOOP('',(#103));
#41=EDGE_LOOP('',(#104,#105,#106,#107));
#42=EDGE_LOOP('',(#108));
#43=EDGE_LOOP('',(#109));
#44=EDGE_LOOP('',(#110,#111,#112,#113));
#45=EDGE_LOOP('',(#114,#115,#116,#117));
#46=EDGE_LOOP('',(#118));
#47=EDGE_LOOP('',(#119));
#48=EDGE_LOOP('',(#120,#121,#122,#123));
#49=LINE('',#224,#55);
#50=LINE('',#228,#56);
#51=LINE('',#235,#57);
#52=LINE('',#244,#58);
#53=LINE('',#247,#59);
#54=LINE('',#252,#60);
#55=VECTOR('',#178,27.9);
#56=VECTOR('',#183,28.);
#57=VECTOR('',#192,27.9);
#58=VECTOR('',#203,25.6);
#59=VECTOR('',#208,25.7);
#60=VECTOR('',#215,16.8);
#61=CIRCLE('',#152,27.8);
#62=CIRCLE('',#153,28.);
#63=CIRCLE('',#155,28.);
#64=CIRCLE('',#157,25.7);
#65=CIRCLE('',#159,27.8);
#66=CIRCLE('',#161,16.8);
#67=CIRCLE('',#163,25.5);
#68=CIRCLE('',#164,25.7);
#69=CIRCLE('',#167,16.8);
#70=VERTEX_POINT('',#221);
#71=VERTEX_POINT('',#223);
#72=VERTEX_POINT('',#227);
#73=VERTEX_POINT('',#231);
#74=VERTEX_POINT('',#234);
#75=VERTEX_POINT('',#238);
#76=VERTEX_POINT('',#241);
#77=VERTEX_POINT('',#243);
#78=VERTEX_POINT('',#249);
#79=EDGE_CURVE('',#70,#70,#61,.T.);
#80=EDGE_CURVE('',#70,#71,#49,.T.);
#81=EDGE_CURVE('',#71,#71,#62,.T.);
#82=EDGE_CURVE('',#71,#72,#50,.T.);
#83=EDGE_CURVE('',#72,#72,#63,.T.);
#84=EDGE_CURVE('',#73,#73,#64,.T.);
#85=EDGE_CURVE('',#72,#74,#51,.T.);
#86=EDGE_CURVE('',#74,#74,#65,.T.);
#87=EDGE_CURVE('',#75,#75,#66,.T.);
#88=EDGE_CURVE('',#76,#76,#67,.T.);
#89=EDGE_CURVE('',#76,#77,#52,.T.);
#90=EDGE_CURVE('',#77,#77,#68,.T.);
#91=EDGE_CURVE('',#77,#73,#53,.T.);
#92=EDGE_CURVE('',#78,#78,#69,.T.);
#93=EDGE_CURVE('',#78,#75,#54,.T.);
#94=ORIENTED_EDGE('',*,*,#79,.T.);
#95=ORIENTED_EDGE('',*,*,#80,.T.);
#96=ORIENTED_EDGE('',*,*,#81,.T.);
#97=ORIENTED_EDGE('',*,*,#80,.F.);
#98=ORIENTED_EDGE('',*,*,#81,.F.);
#99=ORIENTED_EDGE('',*,*,#82,.T.);
#100=ORIENTED_EDGE('',*,*,#83,.F.);
#101=ORIENTED_EDGE('',*,*,#82,.F.);
#102=ORIENTED_EDGE('',*,*,#79,.F.);
#103=ORIENTED_EDGE('',*,*,#84,.T.);
#104=ORIENTED_EDGE('',*,*,#83,.T.);
#105=ORIENTED_EDGE('',*,*,#85,.T.);
#106=ORIENTED_EDGE('',*,*,#86,.T.);
#107=ORIENTED_EDGE('',*,*,#85,.F.);
#108=ORIENTED_EDGE('',*,*,#86,.F.);
#109=ORIENTED_EDGE('',*,*,#87,.F.);
#110=ORIENTED_EDGE('',*,*,#88,.T.);
#111=ORIENTED_EDGE('',*,*,#89,.T.);
#112=ORIENTED_EDGE('',*,*,#90,.T.);
#113=ORIENTED_EDGE('',*,*,#89,.F.);
#114=ORIENTED_EDGE('',*,*,#90,.F.);
#115=ORIENTED_EDGE('',*,*,#91,.T.);
#116=ORIENTED_EDGE('',*,*,#84,.F.);
#117=ORIENTED_EDGE('',*,*,#91,.F.);
#118=ORIENTED_EDGE('',*,*,#88,.F.);
#119=ORIENTED_EDGE('',*,*,#92,.T.);
#120=ORIENTED_EDGE('',*,*,#92,.F.);
#121=ORIENTED_EDGE('',*,*,#93,.T.);
#122=ORIENTED_EDGE('',*,*,#87,.T.);
#123=ORIENTED_EDGE('',*,*,#93,.F.);
#124=CONICAL_SURFACE('',#151,27.9,0.785398163397448);
#125=CONICAL_SURFACE('',#158,27.9,0.785398163397449);
#126=CONICAL_SURFACE('',#162,25.6,0.785398163397448);
#127=ADVANCED_FACE('',(#28),#124,.T.);
#128=ADVANCED_FACE('',(#29),#25,.T.);
#129=ADVANCED_FACE('',(#30,#19),#22,.T.);
#130=ADVANCED_FACE('',(#31),#125,.T.);
#131=ADVANCED_FACE('',(#32,#20),#23,.F.);
#132=ADVANCED_FACE('',(#33),#126,.T.);
#133=ADVANCED_FACE('',(#34),#26,.T.);
#134=ADVANCED_FACE('',(#35,#21),#24,.T.);
#135=ADVANCED_FACE('',(#36),#27,.F.);
#136=CLOSED_SHELL('',(#127,#128,#129,#130,#131,#132,#133,#134,#135));
#137=DERIVED_UNIT_ELEMENT(#139,1.);
#138=DERIVED_UNIT_ELEMENT(#261,-3.);
#139=(
MASS_UNIT()
NAMED_UNIT(*)
SI_UNIT(.KILO.,.GRAM.)
);
#140=DERIVED_UNIT((#137,#138));
#141=MEASURE_REPRESENTATION_ITEM('density measure',
POSITIVE_RATIO_MEASURE(7850.),#140);
#142=PROPERTY_DEFINITION_REPRESENTATION(#147,#144);
#143=PROPERTY_DEFINITION_REPRESENTATION(#148,#145);
#144=REPRESENTATION('material name',(#146),#258);
#145=REPRESENTATION('density',(#141),#258);
#146=DESCRIPTIVE_REPRESENTATION_ITEM('Acier','Acier');
#147=PROPERTY_DEFINITION('material property','material name',#273);
#148=PROPERTY_DEFINITION('material property','density of part',#273);
#149=AXIS2_PLACEMENT_3D('',#218,#170,#171);
#150=AXIS2_PLACEMENT_3D('',#219,#172,#173);
#151=AXIS2_PLACEMENT_3D('',#220,#174,#175);
#152=AXIS2_PLACEMENT_3D('',#222,#176,#177);
#153=AXIS2_PLACEMENT_3D('',#225,#179,#180);
#154=AXIS2_PLACEMENT_3D('',#226,#181,#182);
#155=AXIS2_PLACEMENT_3D('',#229,#184,#185);
#156=AXIS2_PLACEMENT_3D('',#230,#186,#187);
#157=AXIS2_PLACEMENT_3D('',#232,#188,#189);
#158=AXIS2_PLACEMENT_3D('',#233,#190,#191);
#159=AXIS2_PLACEMENT_3D('',#236,#193,#194);
#160=AXIS2_PLACEMENT_3D('',#237,#195,#196);
#161=AXIS2_PLACEMENT_3D('',#239,#197,#198);
#162=AXIS2_PLACEMENT_3D('',#240,#199,#200);
#163=AXIS2_PLACEMENT_3D('',#242,#201,#202);
#164=AXIS2_PLACEMENT_3D('',#245,#204,#205);
#165=AXIS2_PLACEMENT_3D('',#246,#206,#207);
#166=AXIS2_PLACEMENT_3D('',#248,#209,#210);
#167=AXIS2_PLACEMENT_3D('',#250,#211,#212);
#168=AXIS2_PLACEMENT_3D('',#251,#213,#214);
#169=AXIS2_PLACEMENT_3D('',#253,#216,#217);
#170=DIRECTION('axis',(0.,0.,1.));
#171=DIRECTION('refdir',(1.,0.,0.));
#172=DIRECTION('axis',(0.,0.,1.));
#173=DIRECTION('refdir',(1.,0.,0.));
#174=DIRECTION('center_axis',(0.,-1.,0.));
#175=DIRECTION('ref_axis',(1.,0.,0.));
#176=DIRECTION('center_axis',(0.,-1.,0.));
#177=DIRECTION('ref_axis',(1.,0.,0.));
#178=DIRECTION('',(-0.707106781186547,-0.707106781186547,8.65956056235493E-17));
#179=DIRECTION('center_axis',(0.,1.,0.));
#180=DIRECTION('ref_axis',(1.,0.,0.));
#181=DIRECTION('center_axis',(0.,1.,0.));
#182=DIRECTION('ref_axis',(1.,0.,0.));
#183=DIRECTION('',(0.,-1.,0.));
#184=DIRECTION('center_axis',(0.,-1.,0.));
#185=DIRECTION('ref_axis',(1.,0.,0.));
#186=DIRECTION('center_axis',(0.,1.,0.));
#187=DIRECTION('ref_axis',(1.,0.,0.));
#188=DIRECTION('center_axis',(0.,-1.,0.));
#189=DIRECTION('ref_axis',(1.,0.,0.));
#190=DIRECTION('center_axis',(0.,1.,0.));
#191=DIRECTION('ref_axis',(1.,0.,0.));
#192=DIRECTION('',(0.707106781186548,-0.707106781186547,-8.65956056235494E-17));
#193=DIRECTION('center_axis',(0.,1.,0.));
#194=DIRECTION('ref_axis',(1.,0.,0.));
#195=DIRECTION('center_axis',(0.,1.,0.));
#196=DIRECTION('ref_axis',(1.,0.,0.));
#197=DIRECTION('center_axis',(0.,-1.,0.));
#198=DIRECTION('ref_axis',(1.,0.,0.));
#199=DIRECTION('center_axis',(0.,-1.,0.));
#200=DIRECTION('ref_axis',(1.,0.,0.));
#201=DIRECTION('center_axis',(0.,-1.,0.));
#202=DIRECTION('ref_axis',(1.,0.,0.));
#203=DIRECTION('',(-0.707106781186548,-0.707106781186548,8.65956056235493E-17));
#204=DIRECTION('center_axis',(0.,1.,0.));
#205=DIRECTION('ref_axis',(1.,0.,0.));
#206=DIRECTION('center_axis',(0.,1.,0.));
#207=DIRECTION('ref_axis',(1.,0.,0.));
#208=DIRECTION('',(0.,-1.,0.));
#209=DIRECTION('center_axis',(0.,1.,0.));
#210=DIRECTION('ref_axis',(1.,0.,0.));
#211=DIRECTION('center_axis',(0.,-1.,0.));
#212=DIRECTION('ref_axis',(1.,0.,0.));
#213=DIRECTION('center_axis',(0.,1.,0.));
#214=DIRECTION('ref_axis',(1.,0.,0.));
#215=DIRECTION('',(0.,-1.,0.));
#216=DIRECTION('',(0.,0.,1.));
#217=DIRECTION('',(1.,0.,0.));
#218=CARTESIAN_POINT('',(0.,0.,0.));
#219=CARTESIAN_POINT('',(0.,0.,0.));
#220=CARTESIAN_POINT('Origin',(0.,1.9,0.));
#221=CARTESIAN_POINT('',(-27.8,2.,-3.40451810162964E-15));
#222=CARTESIAN_POINT('Origin',(0.,2.,0.));
#223=CARTESIAN_POINT('',(-28.,1.8,3.42901103761259E-15));
#224=CARTESIAN_POINT('',(-27.9,1.9,3.41676456962112E-15));
#225=CARTESIAN_POINT('Origin',(0.,1.8,0.));
#226=CARTESIAN_POINT('Origin',(0.,0.,0.));
#227=CARTESIAN_POINT('',(-28.,0.2,-3.42901103761259E-15));
#228=CARTESIAN_POINT('',(-28.,0.,3.42901103761259E-15));
#229=CARTESIAN_POINT('Origin',(0.,0.2,0.));
#230=CARTESIAN_POINT('Origin',(0.,2.,0.));
#231=CARTESIAN_POINT('',(-25.7,2.,3.1473422738087E-15));
#232=CARTESIAN_POINT('Origin',(0.,2.,0.));
#233=CARTESIAN_POINT('Origin',(0.,0.1,0.));
#234=CARTESIAN_POINT('',(-27.8,0.,3.40451810162964E-15));
#235=CARTESIAN_POINT('',(-27.9,0.1,3.41676456962112E-15));
#236=CARTESIAN_POINT('Origin',(0.,0.,0.));
#237=CARTESIAN_POINT('Origin',(0.,0.,0.));
#238=CARTESIAN_POINT('',(-9.9,0.,2.05740662256755E-15));
#239=CARTESIAN_POINT('Origin',(6.9,0.,0.));
#240=CARTESIAN_POINT('Origin',(0.,9.9,0.));
#241=CARTESIAN_POINT('',(-25.5,10.,-3.12284933782575E-15));
#242=CARTESIAN_POINT('Origin',(0.,10.,0.));
#243=CARTESIAN_POINT('',(-25.7,9.8,3.1473422738087E-15));
#244=CARTESIAN_POINT('',(-25.6,9.9,3.13509580581722E-15));
#245=CARTESIAN_POINT('Origin',(0.,9.8,0.));
#246=CARTESIAN_POINT('Origin',(0.,0.,0.));
#247=CARTESIAN_POINT('',(-25.7,0.,3.1473422738087E-15));
#248=CARTESIAN_POINT('Origin',(0.,10.,0.));
#249=CARTESIAN_POINT('',(-9.9,10.,2.05740662256755E-15));
#250=CARTESIAN_POINT('Origin',(6.9,10.,0.));
#251=CARTESIAN_POINT('Origin',(6.9,0.,0.));
#252=CARTESIAN_POINT('',(-9.9,0.,2.05740662256755E-15));
#253=CARTESIAN_POINT('',(0.,0.,0.));
#254=UNCERTAINTY_MEASURE_WITH_UNIT(LENGTH_MEASURE(0.01),#260,
'DISTANCE_ACCURACY_VALUE',
'Maximum model space distance between geometric entities at asserted c
onnectivities');
#255=UNCERTAINTY_MEASURE_WITH_UNIT(LENGTH_MEASURE(0.01),#260,
'DISTANCE_ACCURACY_VALUE',
'Maximum model space distance between geometric entities at asserted c
onnectivities');
#256=UNCERTAINTY_MEASURE_WITH_UNIT(LENGTH_MEASURE(0.01),#260,
'DISTANCE_ACCURACY_VALUE',
'Maximum model space distance between geometric entities at asserted c
onnectivities');
#257=(
GEOMETRIC_REPRESENTATION_CONTEXT(3)
GLOBAL_UNCERTAINTY_ASSIGNED_CONTEXT((#254))
GLOBAL_UNIT_ASSIGNED_CONTEXT((#260,#262,#263))
REPRESENTATION_CONTEXT('','3D')
);
#258=(
GEOMETRIC_REPRESENTATION_CONTEXT(3)
GLOBAL_UNCERTAINTY_ASSIGNED_CONTEXT((#255))
GLOBAL_UNIT_ASSIGNED_CONTEXT((#260,#262,#263))
REPRESENTATION_CONTEXT('','3D')
);
#259=(
GEOMETRIC_REPRESENTATION_CONTEXT(3)
GLOBAL_UNCERTAINTY_ASSIGNED_CONTEXT((#256))
GLOBAL_UNIT_ASSIGNED_CONTEXT((#260,#262,#263))
REPRESENTATION_CONTEXT('','3D')
);
#260=(
LENGTH_UNIT()
NAMED_UNIT(*)
SI_UNIT(.MILLI.,.METRE.)
);
#261=(
LENGTH_UNIT()
NAMED_UNIT(*)
SI_UNIT($,.METRE.)
);
#262=(
NAMED_UNIT(*)
PLANE_ANGLE_UNIT()
SI_UNIT($,.RADIAN.)
);
#263=(
NAMED_UNIT(*)
SI_UNIT($,.STERADIAN.)
SOLID_ANGLE_UNIT()
);
#264=SHAPE_DEFINITION_REPRESENTATION(#266,#269);
#265=SHAPE_DEFINITION_REPRESENTATION(#267,#270);
#266=PRODUCT_DEFINITION_SHAPE('',$,#272);
#267=PRODUCT_DEFINITION_SHAPE('',$,#273);
#268=PRODUCT_DEFINITION_SHAPE($,$,#14);
#269=SHAPE_REPRESENTATION('',(#149,#169),#257);
#270=SHAPE_REPRESENTATION('',(#150),#258);
#271=PRODUCT_DEFINITION_CONTEXT('part definition',#279,'design');
#272=PRODUCT_DEFINITION('Adaptateur Tongsheng US BB',
'Adaptateur Tongsheng US BB v2',#274,#271);
#273=PRODUCT_DEFINITION('Composant1','Composant1',#275,#271);
#274=PRODUCT_DEFINITION_FORMATION('',$,#281);
#275=PRODUCT_DEFINITION_FORMATION('',$,#282);
#276=PRODUCT_RELATED_PRODUCT_CATEGORY('Adaptateur Tongsheng US BB v2',
'Adaptateur Tongsheng US BB v2',(#281));
#277=PRODUCT_RELATED_PRODUCT_CATEGORY('Composant1','Composant1',(#282));
#278=APPLICATION_PROTOCOL_DEFINITION('international standard',
'automotive_design',2009,#279);
#279=APPLICATION_CONTEXT(
'Core Data for Automotive Mechanical Design Process');
#280=PRODUCT_CONTEXT('part definition',#279,'mechanical');
#281=PRODUCT('Adaptateur Tongsheng US BB',
'Adaptateur Tongsheng US BB v2',$,(#280));
#282=PRODUCT('Composant1','Composant1',$,(#280));
#283=PRESENTATION_STYLE_ASSIGNMENT((#284));
#284=SURFACE_STYLE_USAGE(.BOTH.,#285);
#285=SURFACE_SIDE_STYLE('',(#286));
#286=SURFACE_STYLE_FILL_AREA(#287);
#287=FILL_AREA_STYLE('Acier - Satin\X\E9',(#288));
#288=FILL_AREA_STYLE_COLOUR('Acier - Satin\X\E9',#289);
#289=COLOUR_RGB('Acier - Satin\X\E9',0.627450980392157,0.627450980392157,
0.627450980392157);
ENDSEC;
END-ISO-10303-21;
