ISO-10303-21;
HEADER;
/* Generated by software containing ST-Developer
 * from STEP Tools, Inc. (www.steptools.com) 
 */

FILE_DESCRIPTION(
/* description */ (''),
/* implementation_level */ '2;1');

FILE_NAME(
/* name */ 'Base v3 v2.step',
/* time_stamp */ '2023-06-15T21:21:59+02:00',
/* author */ (''),
/* organization */ (''),
/* preprocessor_version */ 'ST-DEVELOPER v19.2',
/* originating_system */ 'Autodesk Translation Framework v12.6.0.85',
/* authorisation */ '');

FILE_SCHEMA (('AUTOMOTIVE_DESIGN { 1 0 10303 214 3 1 1 }'));
ENDSEC;

DATA;
#10=MECHANICAL_DESIGN_GEOMETRIC_PRESENTATION_REPRESENTATION('',(#13),#318);
#11=SHAPE_REPRESENTATION_RELATIONSHIP('SRR','None',#325,#12);
#12=ADVANCED_BREP_SHAPE_REPRESENTATION('',(#14),#317);
#13=STYLED_ITEM('',(#334),#14);
#14=MANIFOLD_SOLID_BREP('Corps1',#168);
#15=FACE_BOUND('',#53,.T.);
#16=FACE_BOUND('',#56,.T.);
#17=FACE_BOUND('',#61,.T.);
#18=FACE_BOUND('',#64,.T.);
#19=PLANE('',#188);
#20=PLANE('',#193);
#21=PLANE('',#202);
#22=PLANE('',#206);
#23=LINE('',#280,#28);
#24=LINE('',#300,#29);
#25=LINE('',#302,#30);
#26=LINE('',#309,#31);
#27=LINE('',#314,#32);
#28=VECTOR('',#223,17.0000002533197);
#29=VECTOR('',#250,17.0000001266599);
#30=VECTOR('',#253,16.0000002384186);
#31=VECTOR('',#262,60.);
#32=VECTOR('',#269,14.);
#33=CYLINDRICAL_SURFACE('',#186,17.0000002533197);
#34=CYLINDRICAL_SURFACE('',#199,17.0000001266599);
#35=CYLINDRICAL_SURFACE('',#201,16.0000002384186);
#36=CYLINDRICAL_SURFACE('',#204,60.);
#37=CYLINDRICAL_SURFACE('',#208,14.);
#38=FACE_OUTER_BOUND('',#50,.T.);
#39=FACE_OUTER_BOUND('',#51,.T.);
#40=FACE_OUTER_BOUND('',#52,.T.);
#41=FACE_OUTER_BOUND('',#54,.T.);
#42=FACE_OUTER_BOUND('',#55,.T.);
#43=FACE_OUTER_BOUND('',#57,.T.);
#44=FACE_OUTER_BOUND('',#58,.T.);
#45=FACE_OUTER_BOUND('',#59,.T.);
#46=FACE_OUTER_BOUND('',#60,.T.);
#47=FACE_OUTER_BOUND('',#62,.T.);
#48=FACE_OUTER_BOUND('',#63,.T.);
#49=FACE_OUTER_BOUND('',#65,.T.);
#50=EDGE_LOOP('',(#113,#114,#115,#116));
#51=EDGE_LOOP('',(#117,#118,#119,#120));
#52=EDGE_LOOP('',(#121));
#53=EDGE_LOOP('',(#122));
#54=EDGE_LOOP('',(#123,#124,#125,#126));
#55=EDGE_LOOP('',(#127));
#56=EDGE_LOOP('',(#128));
#57=EDGE_LOOP('',(#129,#130,#131,#132));
#58=EDGE_LOOP('',(#133,#134,#135,#136));
#59=EDGE_LOOP('',(#137,#138,#139,#140));
#60=EDGE_LOOP('',(#141));
#61=EDGE_LOOP('',(#142));
#62=EDGE_LOOP('',(#143,#144,#145,#146));
#63=EDGE_LOOP('',(#147));
#64=EDGE_LOOP('',(#148));
#65=EDGE_LOOP('',(#149,#150,#151,#152));
#66=CIRCLE('',#183,17.0000002533197);
#67=CIRCLE('',#184,0.5);
#68=CIRCLE('',#185,16.5000002533197);
#69=CIRCLE('',#187,17.0000002533197);
#70=CIRCLE('',#189,14.);
#71=CIRCLE('',#191,16.5000002533197);
#72=CIRCLE('',#192,0.5);
#73=CIRCLE('',#194,16.0000002384186);
#74=CIRCLE('',#196,17.0000001266599);
#75=CIRCLE('',#197,2.5);
#76=CIRCLE('',#198,16.0000002384186);
#77=CIRCLE('',#200,17.);
#78=CIRCLE('',#203,60.);
#79=CIRCLE('',#205,60.);
#80=CIRCLE('',#207,14.);
#81=VERTEX_POINT('',#272);
#82=VERTEX_POINT('',#274);
#83=VERTEX_POINT('',#278);
#84=VERTEX_POINT('',#282);
#85=VERTEX_POINT('',#285);
#86=VERTEX_POINT('',#289);
#87=VERTEX_POINT('',#292);
#88=VERTEX_POINT('',#294);
#89=VERTEX_POINT('',#298);
#90=VERTEX_POINT('',#304);
#91=VERTEX_POINT('',#307);
#92=VERTEX_POINT('',#311);
#93=EDGE_CURVE('',#81,#81,#66,.T.);
#94=EDGE_CURVE('',#81,#82,#67,.T.);
#95=EDGE_CURVE('',#82,#82,#68,.T.);
#96=EDGE_CURVE('',#83,#83,#69,.T.);
#97=EDGE_CURVE('',#83,#81,#23,.T.);
#98=EDGE_CURVE('',#84,#84,#70,.T.);
#99=EDGE_CURVE('',#85,#85,#71,.T.);
#100=EDGE_CURVE('',#85,#83,#72,.T.);
#101=EDGE_CURVE('',#86,#86,#73,.T.);
#102=EDGE_CURVE('',#87,#87,#74,.T.);
#103=EDGE_CURVE('',#87,#88,#75,.T.);
#104=EDGE_CURVE('',#88,#88,#76,.T.);
#105=EDGE_CURVE('',#89,#89,#77,.T.);
#106=EDGE_CURVE('',#89,#87,#24,.T.);
#107=EDGE_CURVE('',#88,#86,#25,.T.);
#108=EDGE_CURVE('',#90,#90,#78,.T.);
#109=EDGE_CURVE('',#91,#91,#79,.T.);
#110=EDGE_CURVE('',#91,#90,#26,.T.);
#111=EDGE_CURVE('',#92,#92,#80,.T.);
#112=EDGE_CURVE('',#92,#84,#27,.T.);
#113=ORIENTED_EDGE('',*,*,#93,.T.);
#114=ORIENTED_EDGE('',*,*,#94,.T.);
#115=ORIENTED_EDGE('',*,*,#95,.T.);
#116=ORIENTED_EDGE('',*,*,#94,.F.);
#117=ORIENTED_EDGE('',*,*,#96,.F.);
#118=ORIENTED_EDGE('',*,*,#97,.T.);
#119=ORIENTED_EDGE('',*,*,#93,.F.);
#120=ORIENTED_EDGE('',*,*,#97,.F.);
#121=ORIENTED_EDGE('',*,*,#95,.F.);
#122=ORIENTED_EDGE('',*,*,#98,.T.);
#123=ORIENTED_EDGE('',*,*,#99,.T.);
#124=ORIENTED_EDGE('',*,*,#100,.T.);
#125=ORIENTED_EDGE('',*,*,#96,.T.);
#126=ORIENTED_EDGE('',*,*,#100,.F.);
#127=ORIENTED_EDGE('',*,*,#99,.F.);
#128=ORIENTED_EDGE('',*,*,#101,.F.);
#129=ORIENTED_EDGE('',*,*,#102,.T.);
#130=ORIENTED_EDGE('',*,*,#103,.T.);
#131=ORIENTED_EDGE('',*,*,#104,.T.);
#132=ORIENTED_EDGE('',*,*,#103,.F.);
#133=ORIENTED_EDGE('',*,*,#105,.F.);
#134=ORIENTED_EDGE('',*,*,#106,.T.);
#135=ORIENTED_EDGE('',*,*,#102,.F.);
#136=ORIENTED_EDGE('',*,*,#106,.F.);
#137=ORIENTED_EDGE('',*,*,#104,.F.);
#138=ORIENTED_EDGE('',*,*,#107,.T.);
#139=ORIENTED_EDGE('',*,*,#101,.T.);
#140=ORIENTED_EDGE('',*,*,#107,.F.);
#141=ORIENTED_EDGE('',*,*,#108,.F.);
#142=ORIENTED_EDGE('',*,*,#105,.T.);
#143=ORIENTED_EDGE('',*,*,#109,.F.);
#144=ORIENTED_EDGE('',*,*,#110,.T.);
#145=ORIENTED_EDGE('',*,*,#108,.T.);
#146=ORIENTED_EDGE('',*,*,#110,.F.);
#147=ORIENTED_EDGE('',*,*,#109,.T.);
#148=ORIENTED_EDGE('',*,*,#111,.F.);
#149=ORIENTED_EDGE('',*,*,#111,.T.);
#150=ORIENTED_EDGE('',*,*,#112,.T.);
#151=ORIENTED_EDGE('',*,*,#98,.F.);
#152=ORIENTED_EDGE('',*,*,#112,.F.);
#153=TOROIDAL_SURFACE('',#182,16.5000002533197,0.5);
#154=TOROIDAL_SURFACE('',#190,16.5000002533197,0.5);
#155=TOROIDAL_SURFACE('',#195,14.5000001266599,2.5);
#156=ADVANCED_FACE('',(#38),#153,.T.);
#157=ADVANCED_FACE('',(#39),#33,.T.);
#158=ADVANCED_FACE('',(#40,#15),#19,.T.);
#159=ADVANCED_FACE('',(#41),#154,.T.);
#160=ADVANCED_FACE('',(#42,#16),#20,.T.);
#161=ADVANCED_FACE('',(#43),#155,.T.);
#162=ADVANCED_FACE('',(#44),#34,.T.);
#163=ADVANCED_FACE('',(#45),#35,.T.);
#164=ADVANCED_FACE('',(#46,#17),#21,.T.);
#165=ADVANCED_FACE('',(#47),#36,.T.);
#166=ADVANCED_FACE('',(#48,#18),#22,.T.);
#167=ADVANCED_FACE('',(#49),#37,.F.);
#168=CLOSED_SHELL('',(#156,#157,#158,#159,#160,#161,#162,#163,#164,#165,
#166,#167));
#169=DERIVED_UNIT_ELEMENT(#171,1.);
#170=DERIVED_UNIT_ELEMENT(#320,-3.);
#171=(
MASS_UNIT()
NAMED_UNIT(*)
SI_UNIT(.KILO.,.GRAM.)
);
#172=DERIVED_UNIT((#169,#170));
#173=MEASURE_REPRESENTATION_ITEM('density measure',
POSITIVE_RATIO_MEASURE(7850.),#172);
#174=PROPERTY_DEFINITION_REPRESENTATION(#179,#176);
#175=PROPERTY_DEFINITION_REPRESENTATION(#180,#177);
#176=REPRESENTATION('material name',(#178),#317);
#177=REPRESENTATION('density',(#173),#317);
#178=DESCRIPTIVE_REPRESENTATION_ITEM('Acier','Acier');
#179=PROPERTY_DEFINITION('material property','material name',#327);
#180=PROPERTY_DEFINITION('material property','density of part',#327);
#181=AXIS2_PLACEMENT_3D('',#270,#209,#210);
#182=AXIS2_PLACEMENT_3D('',#271,#211,#212);
#183=AXIS2_PLACEMENT_3D('',#273,#213,#214);
#184=AXIS2_PLACEMENT_3D('',#275,#215,#216);
#185=AXIS2_PLACEMENT_3D('',#276,#217,#218);
#186=AXIS2_PLACEMENT_3D('',#277,#219,#220);
#187=AXIS2_PLACEMENT_3D('',#279,#221,#222);
#188=AXIS2_PLACEMENT_3D('',#281,#224,#225);
#189=AXIS2_PLACEMENT_3D('',#283,#226,#227);
#190=AXIS2_PLACEMENT_3D('',#284,#228,#229);
#191=AXIS2_PLACEMENT_3D('',#286,#230,#231);
#192=AXIS2_PLACEMENT_3D('',#287,#232,#233);
#193=AXIS2_PLACEMENT_3D('',#288,#234,#235);
#194=AXIS2_PLACEMENT_3D('',#290,#236,#237);
#195=AXIS2_PLACEMENT_3D('',#291,#238,#239);
#196=AXIS2_PLACEMENT_3D('',#293,#240,#241);
#197=AXIS2_PLACEMENT_3D('',#295,#242,#243);
#198=AXIS2_PLACEMENT_3D('',#296,#244,#245);
#199=AXIS2_PLACEMENT_3D('',#297,#246,#247);
#200=AXIS2_PLACEMENT_3D('',#299,#248,#249);
#201=AXIS2_PLACEMENT_3D('',#301,#251,#252);
#202=AXIS2_PLACEMENT_3D('',#303,#254,#255);
#203=AXIS2_PLACEMENT_3D('',#305,#256,#257);
#204=AXIS2_PLACEMENT_3D('',#306,#258,#259);
#205=AXIS2_PLACEMENT_3D('',#308,#260,#261);
#206=AXIS2_PLACEMENT_3D('',#310,#263,#264);
#207=AXIS2_PLACEMENT_3D('',#312,#265,#266);
#208=AXIS2_PLACEMENT_3D('',#313,#267,#268);
#209=DIRECTION('axis',(0.,0.,1.));
#210=DIRECTION('refdir',(1.,0.,0.));
#211=DIRECTION('center_axis',(0.,0.,-1.));
#212=DIRECTION('ref_axis',(-1.,0.,0.));
#213=DIRECTION('center_axis',(0.,0.,1.));
#214=DIRECTION('ref_axis',(1.,0.,0.));
#215=DIRECTION('center_axis',(-1.22464679914735E-16,-1.,0.));
#216=DIRECTION('ref_axis',(1.,-1.22464679914735E-16,0.));
#217=DIRECTION('center_axis',(0.,0.,-1.));
#218=DIRECTION('ref_axis',(1.,0.,0.));
#219=DIRECTION('center_axis',(0.,0.,-1.));
#220=DIRECTION('ref_axis',(-1.,0.,0.));
#221=DIRECTION('center_axis',(0.,0.,-1.));
#222=DIRECTION('ref_axis',(1.,0.,0.));
#223=DIRECTION('',(0.,0.,1.));
#224=DIRECTION('center_axis',(0.,0.,1.));
#225=DIRECTION('ref_axis',(1.,0.,0.));
#226=DIRECTION('center_axis',(0.,0.,-1.));
#227=DIRECTION('ref_axis',(1.,0.,0.));
#228=DIRECTION('center_axis',(0.,0.,-1.));
#229=DIRECTION('ref_axis',(-1.,0.,0.));
#230=DIRECTION('center_axis',(0.,0.,1.));
#231=DIRECTION('ref_axis',(1.,0.,0.));
#232=DIRECTION('center_axis',(-1.22464679914735E-16,-1.,0.));
#233=DIRECTION('ref_axis',(1.,-1.22464679914735E-16,0.));
#234=DIRECTION('center_axis',(0.,0.,-1.));
#235=DIRECTION('ref_axis',(-1.,0.,0.));
#236=DIRECTION('center_axis',(0.,0.,-1.));
#237=DIRECTION('ref_axis',(1.,0.,0.));
#238=DIRECTION('center_axis',(0.,0.,-1.));
#239=DIRECTION('ref_axis',(-1.,0.,0.));
#240=DIRECTION('center_axis',(0.,0.,1.));
#241=DIRECTION('ref_axis',(-1.,0.,0.));
#242=DIRECTION('center_axis',(1.22464679914735E-16,-1.,0.));
#243=DIRECTION('ref_axis',(1.,1.22464679914735E-16,0.));
#244=DIRECTION('center_axis',(0.,0.,-1.));
#245=DIRECTION('ref_axis',(1.,0.,0.));
#246=DIRECTION('center_axis',(0.,0.,-1.));
#247=DIRECTION('ref_axis',(-1.,0.,0.));
#248=DIRECTION('center_axis',(0.,0.,-1.));
#249=DIRECTION('ref_axis',(1.,0.,0.));
#250=DIRECTION('',(0.,0.,1.));
#251=DIRECTION('center_axis',(0.,0.,-1.));
#252=DIRECTION('ref_axis',(-1.,0.,0.));
#253=DIRECTION('',(0.,0.,1.));
#254=DIRECTION('center_axis',(0.,0.,1.));
#255=DIRECTION('ref_axis',(1.,0.,0.));
#256=DIRECTION('center_axis',(0.,0.,-1.));
#257=DIRECTION('ref_axis',(1.,0.,0.));
#258=DIRECTION('center_axis',(0.,0.,-1.));
#259=DIRECTION('ref_axis',(-1.,0.,0.));
#260=DIRECTION('center_axis',(0.,0.,-1.));
#261=DIRECTION('ref_axis',(1.,0.,0.));
#262=DIRECTION('',(0.,0.,1.));
#263=DIRECTION('center_axis',(0.,0.,-1.));
#264=DIRECTION('ref_axis',(-1.,0.,0.));
#265=DIRECTION('center_axis',(0.,0.,-1.));
#266=DIRECTION('ref_axis',(1.,0.,0.));
#267=DIRECTION('center_axis',(0.,0.,-1.));
#268=DIRECTION('ref_axis',(-1.,0.,0.));
#269=DIRECTION('',(0.,0.,1.));
#270=CARTESIAN_POINT('',(0.,0.,0.));
#271=CARTESIAN_POINT('Origin',(0.,0.,27.5));
#272=CARTESIAN_POINT('',(17.0000002533197,-2.08189958957322E-15,27.5));
#273=CARTESIAN_POINT('Origin',(0.,0.,27.5));
#274=CARTESIAN_POINT('',(16.5000002533197,-2.02066724961585E-15,28.));
#275=CARTESIAN_POINT('Origin',(16.5000002533197,-2.02066724961585E-15,27.5));
#276=CARTESIAN_POINT('Origin',(0.,0.,28.));
#277=CARTESIAN_POINT('Origin',(0.,0.,26.5000001862645));
#278=CARTESIAN_POINT('',(17.0000002533197,-2.08189958957322E-15,25.500000372529));
#279=CARTESIAN_POINT('Origin',(0.,0.,25.500000372529));
#280=CARTESIAN_POINT('',(17.0000002533197,-2.08189958957322E-15,26.5000001862645));
#281=CARTESIAN_POINT('Origin',(-17.0000002533197,0.,28.));
#282=CARTESIAN_POINT('',(14.,-1.71450551880629E-15,28.));
#283=CARTESIAN_POINT('Origin',(0.,0.,28.));
#284=CARTESIAN_POINT('Origin',(0.,0.,25.500000372529));
#285=CARTESIAN_POINT('',(16.5000002533197,-2.02066724961585E-15,25.000000372529));
#286=CARTESIAN_POINT('Origin',(0.,0.,25.000000372529));
#287=CARTESIAN_POINT('Origin',(16.5000002533197,-2.02066724961585E-15,25.500000372529));
#288=CARTESIAN_POINT('Origin',(-16.0000002384186,0.,25.000000372529));
#289=CARTESIAN_POINT('',(16.0000002384186,-1.95943490783362E-15,25.000000372529));
#290=CARTESIAN_POINT('Origin',(0.,0.,25.000000372529));
#291=CARTESIAN_POINT('Origin',(0.,0.,22.0000004414469));
#292=CARTESIAN_POINT('',(17.0000001266599,2.08189957406186E-15,22.0000004414469));
#293=CARTESIAN_POINT('Origin',(0.,0.,22.0000004414469));
#294=CARTESIAN_POINT('',(16.0000002384186,1.95943490783362E-15,24.0000003576279));
#295=CARTESIAN_POINT('Origin',(14.5000001266599,1.77573787427502E-15,22.0000004414469));
#296=CARTESIAN_POINT('Origin',(0.,0.,24.0000003576279));
#297=CARTESIAN_POINT('Origin',(0.,0.,15.5000001788139));
#298=CARTESIAN_POINT('',(17.0000001266599,-2.08189957406186E-15,7.));
#299=CARTESIAN_POINT('Origin',(0.,0.,7.));
#300=CARTESIAN_POINT('',(17.0000001266599,-2.08189957406186E-15,15.5000001788139));
#301=CARTESIAN_POINT('Origin',(0.,0.,24.5000003650784));
#302=CARTESIAN_POINT('',(16.0000002384186,-1.95943490783362E-15,24.5000003650784));
#303=CARTESIAN_POINT('Origin',(-60.,0.,7.));
#304=CARTESIAN_POINT('',(60.,-7.34788079488412E-15,7.));
#305=CARTESIAN_POINT('Origin',(0.,0.,7.));
#306=CARTESIAN_POINT('Origin',(0.,0.,3.5));
#307=CARTESIAN_POINT('',(60.,-7.34788079488412E-15,0.));
#308=CARTESIAN_POINT('Origin',(0.,0.,0.));
#309=CARTESIAN_POINT('',(60.,-7.34788079488412E-15,3.5));
#310=CARTESIAN_POINT('Origin',(-14.,0.,0.));
#311=CARTESIAN_POINT('',(14.,-1.71450551880629E-15,0.));
#312=CARTESIAN_POINT('Origin',(0.,0.,0.));
#313=CARTESIAN_POINT('Origin',(0.,0.,14.));
#314=CARTESIAN_POINT('',(14.,-1.71450551880629E-15,14.));
#315=UNCERTAINTY_MEASURE_WITH_UNIT(LENGTH_MEASURE(0.01),#319,
'DISTANCE_ACCURACY_VALUE',
'Maximum model space distance between geometric entities at asserted c
onnectivities');
#316=UNCERTAINTY_MEASURE_WITH_UNIT(LENGTH_MEASURE(0.01),#319,
'DISTANCE_ACCURACY_VALUE',
'Maximum model space distance between geometric entities at asserted c
onnectivities');
#317=(
GEOMETRIC_REPRESENTATION_CONTEXT(3)
GLOBAL_UNCERTAINTY_ASSIGNED_CONTEXT((#315))
GLOBAL_UNIT_ASSIGNED_CONTEXT((#319,#321,#322))
REPRESENTATION_CONTEXT('','3D')
);
#318=(
GEOMETRIC_REPRESENTATION_CONTEXT(3)
GLOBAL_UNCERTAINTY_ASSIGNED_CONTEXT((#316))
GLOBAL_UNIT_ASSIGNED_CONTEXT((#319,#321,#322))
REPRESENTATION_CONTEXT('','3D')
);
#319=(
LENGTH_UNIT()
NAMED_UNIT(*)
SI_UNIT(.MILLI.,.METRE.)
);
#320=(
LENGTH_UNIT()
NAMED_UNIT(*)
SI_UNIT($,.METRE.)
);
#321=(
NAMED_UNIT(*)
PLANE_ANGLE_UNIT()
SI_UNIT($,.RADIAN.)
);
#322=(
NAMED_UNIT(*)
SI_UNIT($,.STERADIAN.)
SOLID_ANGLE_UNIT()
);
#323=SHAPE_DEFINITION_REPRESENTATION(#324,#325);
#324=PRODUCT_DEFINITION_SHAPE('',$,#327);
#325=SHAPE_REPRESENTATION('',(#181),#317);
#326=PRODUCT_DEFINITION_CONTEXT('part definition',#331,'design');
#327=PRODUCT_DEFINITION('Base v3','Base v3 v1',#328,#326);
#328=PRODUCT_DEFINITION_FORMATION('',$,#333);
#329=PRODUCT_RELATED_PRODUCT_CATEGORY('Base v3 v1','Base v3 v1',(#333));
#330=APPLICATION_PROTOCOL_DEFINITION('international standard',
'automotive_design',2009,#331);
#331=APPLICATION_CONTEXT(
'Core Data for Automotive Mechanical Design Process');
#332=PRODUCT_CONTEXT('part definition',#331,'mechanical');
#333=PRODUCT('Base v3','Base v3 v1',$,(#332));
#334=PRESENTATION_STYLE_ASSIGNMENT((#335));
#335=SURFACE_STYLE_USAGE(.BOTH.,#336);
#336=SURFACE_SIDE_STYLE('',(#337));
#337=SURFACE_STYLE_FILL_AREA(#338);
#338=FILL_AREA_STYLE('Acier - Satin\X\E9',(#339));
#339=FILL_AREA_STYLE_COLOUR('Acier - Satin\X\E9',#340);
#340=COLOUR_RGB('Acier - Satin\X\E9',0.627450980392157,0.627450980392157,
0.627450980392157);
ENDSEC;
END-ISO-10303-21;
