ISO-10303-21;
HEADER;
/* Generated by software containing ST-Developer
 * from STEP Tools, Inc. (www.steptools.com) 
 */

FILE_DESCRIPTION(
/* description */ (''),
/* implementation_level */ '2;1');

FILE_NAME(
/* name */ 'tuyre fuse v5 v1.step',
/* time_stamp */ '2023-06-18T15:32:00+02:00',
/* author */ (''),
/* organization */ (''),
/* preprocessor_version */ 'ST-DEVELOPER v19.2',
/* originating_system */ 'Autodesk Translation Framework v11.17.0.187',

/* authorisation */ '');

FILE_SCHEMA (('AUTOMOTIVE_DESIGN { 1 0 10303 214 3 1 1 }'));
ENDSEC;

DATA;
#10=MECHANICAL_DESIGN_GEOMETRIC_PRESENTATION_REPRESENTATION('',(#13),#360);
#11=SHAPE_REPRESENTATION_RELATIONSHIP('SRR','None',#367,#12);
#12=ADVANCED_BREP_SHAPE_REPRESENTATION('',(#14),#359);
#13=STYLED_ITEM('',(#376),#14);
#14=MANIFOLD_SOLID_BREP('Corps3',#196);
#15=CYLINDRICAL_SURFACE('',#215,12.5);
#16=CYLINDRICAL_SURFACE('',#219,27.5);
#17=CYLINDRICAL_SURFACE('',#223,24.5);
#18=CYLINDRICAL_SURFACE('',#233,22.5);
#19=CYLINDRICAL_SURFACE('',#237,27.5);
#20=LINE('',#314,#29);
#21=LINE('',#318,#30);
#22=LINE('',#322,#31);
#23=LINE('',#326,#32);
#24=LINE('',#332,#33);
#25=LINE('',#339,#34);
#26=LINE('',#343,#35);
#27=LINE('',#351,#36);
#28=LINE('',#356,#37);
#29=VECTOR('',#250,16.4999999478459);
#30=VECTOR('',#255,12.5);
#31=VECTOR('',#260,20.);
#32=VECTOR('',#265,27.5);
#33=VECTOR('',#272,24.5);
#34=VECTOR('',#281,15.);
#35=VECTOR('',#286,14.25);
#36=VECTOR('',#297,22.5);
#37=VECTOR('',#304,27.5);
#38=CONICAL_SURFACE('',#213,16.4999999478459,0.224711165582382);
#39=CONICAL_SURFACE('',#217,20.,0.540419500270584);
#40=CONICAL_SURFACE('',#227,15.,0.540419500270584);
#41=CONICAL_SURFACE('',#229,14.25,0.221314442347791);
#42=FACE_BOUND('',#62,.T.);
#43=FACE_BOUND('',#68,.T.);
#44=FACE_BOUND('',#71,.T.);
#45=FACE_BOUND('',#75,.T.);
#46=FACE_BOUND('',#78,.T.);
#47=FACE_OUTER_BOUND('',#61,.T.);
#48=FACE_OUTER_BOUND('',#63,.T.);
#49=FACE_OUTER_BOUND('',#64,.T.);
#50=FACE_OUTER_BOUND('',#65,.T.);
#51=FACE_OUTER_BOUND('',#66,.T.);
#52=FACE_OUTER_BOUND('',#67,.T.);
#53=FACE_OUTER_BOUND('',#69,.T.);
#54=FACE_OUTER_BOUND('',#70,.T.);
#55=FACE_OUTER_BOUND('',#72,.T.);
#56=FACE_OUTER_BOUND('',#73,.T.);
#57=FACE_OUTER_BOUND('',#74,.T.);
#58=FACE_OUTER_BOUND('',#76,.T.);
#59=FACE_OUTER_BOUND('',#77,.T.);
#60=FACE_OUTER_BOUND('',#79,.T.);
#61=EDGE_LOOP('',(#131));
#62=EDGE_LOOP('',(#132));
#63=EDGE_LOOP('',(#133,#134,#135,#136));
#64=EDGE_LOOP('',(#137,#138,#139,#140));
#65=EDGE_LOOP('',(#141,#142,#143,#144));
#66=EDGE_LOOP('',(#145,#146,#147,#148));
#67=EDGE_LOOP('',(#149));
#68=EDGE_LOOP('',(#150));
#69=EDGE_LOOP('',(#151,#152,#153,#154));
#70=EDGE_LOOP('',(#155));
#71=EDGE_LOOP('',(#156));
#72=EDGE_LOOP('',(#157,#158,#159,#160));
#73=EDGE_LOOP('',(#161,#162,#163,#164));
#74=EDGE_LOOP('',(#165));
#75=EDGE_LOOP('',(#166));
#76=EDGE_LOOP('',(#167,#168,#169,#170));
#77=EDGE_LOOP('',(#171));
#78=EDGE_LOOP('',(#172));
#79=EDGE_LOOP('',(#173,#174,#175,#176));
#80=CIRCLE('',#211,27.5);
#81=CIRCLE('',#212,20.4999998956919);
#82=CIRCLE('',#214,12.5);
#83=CIRCLE('',#216,12.5);
#84=CIRCLE('',#218,27.5);
#85=CIRCLE('',#220,27.5);
#86=CIRCLE('',#222,24.5);
#87=CIRCLE('',#224,24.5);
#88=CIRCLE('',#226,22.5);
#89=CIRCLE('',#228,7.5);
#90=CIRCLE('',#230,21.);
#91=CIRCLE('',#232,22.5);
#92=CIRCLE('',#234,22.5);
#93=CIRCLE('',#236,27.5);
#94=VERTEX_POINT('',#307);
#95=VERTEX_POINT('',#309);
#96=VERTEX_POINT('',#312);
#97=VERTEX_POINT('',#316);
#98=VERTEX_POINT('',#320);
#99=VERTEX_POINT('',#324);
#100=VERTEX_POINT('',#328);
#101=VERTEX_POINT('',#331);
#102=VERTEX_POINT('',#335);
#103=VERTEX_POINT('',#338);
#104=VERTEX_POINT('',#342);
#105=VERTEX_POINT('',#346);
#106=VERTEX_POINT('',#349);
#107=VERTEX_POINT('',#353);
#108=EDGE_CURVE('',#94,#94,#80,.T.);
#109=EDGE_CURVE('',#95,#95,#81,.T.);
#110=EDGE_CURVE('',#96,#96,#82,.T.);
#111=EDGE_CURVE('',#96,#95,#20,.T.);
#112=EDGE_CURVE('',#97,#97,#83,.T.);
#113=EDGE_CURVE('',#97,#96,#21,.T.);
#114=EDGE_CURVE('',#98,#98,#84,.T.);
#115=EDGE_CURVE('',#98,#97,#22,.T.);
#116=EDGE_CURVE('',#99,#99,#85,.T.);
#117=EDGE_CURVE('',#99,#98,#23,.T.);
#118=EDGE_CURVE('',#100,#100,#86,.T.);
#119=EDGE_CURVE('',#100,#101,#24,.T.);
#120=EDGE_CURVE('',#101,#101,#87,.T.);
#121=EDGE_CURVE('',#102,#102,#88,.T.);
#122=EDGE_CURVE('',#102,#103,#25,.T.);
#123=EDGE_CURVE('',#103,#103,#89,.T.);
#124=EDGE_CURVE('',#103,#104,#26,.T.);
#125=EDGE_CURVE('',#104,#104,#90,.T.);
#126=EDGE_CURVE('',#105,#105,#91,.T.);
#127=EDGE_CURVE('',#106,#106,#92,.T.);
#128=EDGE_CURVE('',#106,#105,#27,.T.);
#129=EDGE_CURVE('',#107,#107,#93,.T.);
#130=EDGE_CURVE('',#94,#107,#28,.T.);
#131=ORIENTED_EDGE('',*,*,#108,.T.);
#132=ORIENTED_EDGE('',*,*,#109,.F.);
#133=ORIENTED_EDGE('',*,*,#110,.F.);
#134=ORIENTED_EDGE('',*,*,#111,.T.);
#135=ORIENTED_EDGE('',*,*,#109,.T.);
#136=ORIENTED_EDGE('',*,*,#111,.F.);
#137=ORIENTED_EDGE('',*,*,#112,.F.);
#138=ORIENTED_EDGE('',*,*,#113,.T.);
#139=ORIENTED_EDGE('',*,*,#110,.T.);
#140=ORIENTED_EDGE('',*,*,#113,.F.);
#141=ORIENTED_EDGE('',*,*,#114,.F.);
#142=ORIENTED_EDGE('',*,*,#115,.T.);
#143=ORIENTED_EDGE('',*,*,#112,.T.);
#144=ORIENTED_EDGE('',*,*,#115,.F.);
#145=ORIENTED_EDGE('',*,*,#116,.F.);
#146=ORIENTED_EDGE('',*,*,#117,.T.);
#147=ORIENTED_EDGE('',*,*,#114,.T.);
#148=ORIENTED_EDGE('',*,*,#117,.F.);
#149=ORIENTED_EDGE('',*,*,#116,.T.);
#150=ORIENTED_EDGE('',*,*,#118,.F.);
#151=ORIENTED_EDGE('',*,*,#118,.T.);
#152=ORIENTED_EDGE('',*,*,#119,.T.);
#153=ORIENTED_EDGE('',*,*,#120,.F.);
#154=ORIENTED_EDGE('',*,*,#119,.F.);
#155=ORIENTED_EDGE('',*,*,#120,.T.);
#156=ORIENTED_EDGE('',*,*,#121,.F.);
#157=ORIENTED_EDGE('',*,*,#121,.T.);
#158=ORIENTED_EDGE('',*,*,#122,.T.);
#159=ORIENTED_EDGE('',*,*,#123,.F.);
#160=ORIENTED_EDGE('',*,*,#122,.F.);
#161=ORIENTED_EDGE('',*,*,#123,.T.);
#162=ORIENTED_EDGE('',*,*,#124,.T.);
#163=ORIENTED_EDGE('',*,*,#125,.F.);
#164=ORIENTED_EDGE('',*,*,#124,.F.);
#165=ORIENTED_EDGE('',*,*,#126,.F.);
#166=ORIENTED_EDGE('',*,*,#125,.T.);
#167=ORIENTED_EDGE('',*,*,#127,.F.);
#168=ORIENTED_EDGE('',*,*,#128,.T.);
#169=ORIENTED_EDGE('',*,*,#126,.T.);
#170=ORIENTED_EDGE('',*,*,#128,.F.);
#171=ORIENTED_EDGE('',*,*,#129,.F.);
#172=ORIENTED_EDGE('',*,*,#127,.T.);
#173=ORIENTED_EDGE('',*,*,#108,.F.);
#174=ORIENTED_EDGE('',*,*,#130,.T.);
#175=ORIENTED_EDGE('',*,*,#129,.T.);
#176=ORIENTED_EDGE('',*,*,#130,.F.);
#177=PLANE('',#210);
#178=PLANE('',#221);
#179=PLANE('',#225);
#180=PLANE('',#231);
#181=PLANE('',#235);
#182=ADVANCED_FACE('',(#47,#42),#177,.T.);
#183=ADVANCED_FACE('',(#48),#38,.T.);
#184=ADVANCED_FACE('',(#49),#15,.T.);
#185=ADVANCED_FACE('',(#50),#39,.T.);
#186=ADVANCED_FACE('',(#51),#16,.T.);
#187=ADVANCED_FACE('',(#52,#43),#178,.T.);
#188=ADVANCED_FACE('',(#53),#17,.F.);
#189=ADVANCED_FACE('',(#54,#44),#179,.T.);
#190=ADVANCED_FACE('',(#55),#40,.F.);
#191=ADVANCED_FACE('',(#56),#41,.F.);
#192=ADVANCED_FACE('',(#57,#45),#180,.T.);
#193=ADVANCED_FACE('',(#58),#18,.T.);
#194=ADVANCED_FACE('',(#59,#46),#181,.T.);
#195=ADVANCED_FACE('',(#60),#19,.T.);
#196=CLOSED_SHELL('',(#182,#183,#184,#185,#186,#187,#188,#189,#190,#191,
#192,#193,#194,#195));
#197=DERIVED_UNIT_ELEMENT(#199,1.);
#198=DERIVED_UNIT_ELEMENT(#362,-3.);
#199=(
MASS_UNIT()
NAMED_UNIT(*)
SI_UNIT(.KILO.,.GRAM.)
);
#200=DERIVED_UNIT((#197,#198));
#201=MEASURE_REPRESENTATION_ITEM('density measure',
POSITIVE_RATIO_MEASURE(7850.),#200);
#202=PROPERTY_DEFINITION_REPRESENTATION(#207,#204);
#203=PROPERTY_DEFINITION_REPRESENTATION(#208,#205);
#204=REPRESENTATION('material name',(#206),#359);
#205=REPRESENTATION('density',(#201),#359);
#206=DESCRIPTIVE_REPRESENTATION_ITEM('Acier','Acier');
#207=PROPERTY_DEFINITION('material property','material name',#369);
#208=PROPERTY_DEFINITION('material property','density of part',#369);
#209=AXIS2_PLACEMENT_3D('placement',#305,#238,#239);
#210=AXIS2_PLACEMENT_3D('',#306,#240,#241);
#211=AXIS2_PLACEMENT_3D('',#308,#242,#243);
#212=AXIS2_PLACEMENT_3D('',#310,#244,#245);
#213=AXIS2_PLACEMENT_3D('',#311,#246,#247);
#214=AXIS2_PLACEMENT_3D('',#313,#248,#249);
#215=AXIS2_PLACEMENT_3D('',#315,#251,#252);
#216=AXIS2_PLACEMENT_3D('',#317,#253,#254);
#217=AXIS2_PLACEMENT_3D('',#319,#256,#257);
#218=AXIS2_PLACEMENT_3D('',#321,#258,#259);
#219=AXIS2_PLACEMENT_3D('',#323,#261,#262);
#220=AXIS2_PLACEMENT_3D('',#325,#263,#264);
#221=AXIS2_PLACEMENT_3D('',#327,#266,#267);
#222=AXIS2_PLACEMENT_3D('',#329,#268,#269);
#223=AXIS2_PLACEMENT_3D('',#330,#270,#271);
#224=AXIS2_PLACEMENT_3D('',#333,#273,#274);
#225=AXIS2_PLACEMENT_3D('',#334,#275,#276);
#226=AXIS2_PLACEMENT_3D('',#336,#277,#278);
#227=AXIS2_PLACEMENT_3D('',#337,#279,#280);
#228=AXIS2_PLACEMENT_3D('',#340,#282,#283);
#229=AXIS2_PLACEMENT_3D('',#341,#284,#285);
#230=AXIS2_PLACEMENT_3D('',#344,#287,#288);
#231=AXIS2_PLACEMENT_3D('',#345,#289,#290);
#232=AXIS2_PLACEMENT_3D('',#347,#291,#292);
#233=AXIS2_PLACEMENT_3D('',#348,#293,#294);
#234=AXIS2_PLACEMENT_3D('',#350,#295,#296);
#235=AXIS2_PLACEMENT_3D('',#352,#298,#299);
#236=AXIS2_PLACEMENT_3D('',#354,#300,#301);
#237=AXIS2_PLACEMENT_3D('',#355,#302,#303);
#238=DIRECTION('axis',(0.,0.,1.));
#239=DIRECTION('refdir',(1.,0.,0.));
#240=DIRECTION('center_axis',(0.,0.,1.));
#241=DIRECTION('ref_axis',(1.,0.,0.));
#242=DIRECTION('center_axis',(0.,0.,1.));
#243=DIRECTION('ref_axis',(1.,0.,0.));
#244=DIRECTION('center_axis',(0.,0.,1.));
#245=DIRECTION('ref_axis',(1.,0.,0.));
#246=DIRECTION('center_axis',(0.,0.,-1.));
#247=DIRECTION('ref_axis',(0.,-1.,0.));
#248=DIRECTION('center_axis',(0.,0.,1.));
#249=DIRECTION('ref_axis',(1.,0.,0.));
#250=DIRECTION('',(-2.72881676548926E-17,0.222824798741087,-0.974858507202965));
#251=DIRECTION('center_axis',(0.,0.,1.));
#252=DIRECTION('ref_axis',(0.,-1.,0.));
#253=DIRECTION('center_axis',(0.,0.,1.));
#254=DIRECTION('ref_axis',(1.,0.,0.));
#255=DIRECTION('',(0.,0.,-1.));
#256=DIRECTION('center_axis',(0.,0.,1.));
#257=DIRECTION('ref_axis',(0.,-1.,0.));
#258=DIRECTION('center_axis',(0.,0.,1.));
#259=DIRECTION('ref_axis',(1.,0.,0.));
#260=DIRECTION('',(6.3007558005922E-17,-0.514495755427527,-0.857492925712544));
#261=DIRECTION('center_axis',(0.,0.,1.));
#262=DIRECTION('ref_axis',(0.,-1.,0.));
#263=DIRECTION('center_axis',(0.,0.,1.));
#264=DIRECTION('ref_axis',(1.,0.,0.));
#265=DIRECTION('',(0.,0.,-1.));
#266=DIRECTION('center_axis',(0.,0.,1.));
#267=DIRECTION('ref_axis',(1.,0.,0.));
#268=DIRECTION('center_axis',(0.,0.,1.));
#269=DIRECTION('ref_axis',(1.,0.,0.));
#270=DIRECTION('center_axis',(0.,0.,1.));
#271=DIRECTION('ref_axis',(0.,-1.,0.));
#272=DIRECTION('',(0.,0.,-1.));
#273=DIRECTION('center_axis',(0.,0.,1.));
#274=DIRECTION('ref_axis',(1.,0.,0.));
#275=DIRECTION('center_axis',(0.,0.,1.));
#276=DIRECTION('ref_axis',(1.,0.,0.));
#277=DIRECTION('center_axis',(0.,0.,1.));
#278=DIRECTION('ref_axis',(1.,0.,0.));
#279=DIRECTION('center_axis',(0.,0.,1.));
#280=DIRECTION('ref_axis',(0.,-1.,0.));
#281=DIRECTION('',(6.3007558005922E-17,-0.514495755427527,-0.857492925712544));
#282=DIRECTION('center_axis',(0.,0.,1.));
#283=DIRECTION('ref_axis',(1.,0.,0.));
#284=DIRECTION('center_axis',(0.,0.,-1.));
#285=DIRECTION('ref_axis',(0.,-1.,0.));
#286=DIRECTION('',(-2.68824907129907E-17,0.219512195121951,-0.975609756097561));
#287=DIRECTION('center_axis',(0.,0.,1.));
#288=DIRECTION('ref_axis',(1.,0.,0.));
#289=DIRECTION('center_axis',(0.,0.,-1.));
#290=DIRECTION('ref_axis',(-1.,0.,0.));
#291=DIRECTION('center_axis',(0.,0.,1.));
#292=DIRECTION('ref_axis',(1.,0.,0.));
#293=DIRECTION('center_axis',(0.,0.,1.));
#294=DIRECTION('ref_axis',(0.,-1.,0.));
#295=DIRECTION('center_axis',(0.,0.,1.));
#296=DIRECTION('ref_axis',(1.,0.,0.));
#297=DIRECTION('',(0.,0.,-1.));
#298=DIRECTION('center_axis',(0.,0.,-1.));
#299=DIRECTION('ref_axis',(-1.,0.,0.));
#300=DIRECTION('center_axis',(0.,0.,1.));
#301=DIRECTION('ref_axis',(1.,0.,0.));
#302=DIRECTION('center_axis',(0.,0.,1.));
#303=DIRECTION('ref_axis',(0.,-1.,0.));
#304=DIRECTION('',(0.,0.,-1.));
#305=CARTESIAN_POINT('',(0.,0.,0.));
#306=CARTESIAN_POINT('Origin',(0.,7.00000010430813,10.));
#307=CARTESIAN_POINT('',(-3.36777869765522E-15,55.,10.));
#308=CARTESIAN_POINT('Origin',(0.,27.5,10.));
#309=CARTESIAN_POINT('',(-2.51052592547801E-15,47.9999998956919,10.));
#310=CARTESIAN_POINT('Origin',(0.,27.5,10.));
#311=CARTESIAN_POINT('Origin',(0.,27.5,27.5));
#312=CARTESIAN_POINT('',(-1.53080849893419E-15,40.,45.));
#313=CARTESIAN_POINT('Origin',(0.,27.5,45.));
#314=CARTESIAN_POINT('',(-2.0206672122061E-15,43.9999999478459,27.5));
#315=CARTESIAN_POINT('Origin',(0.,27.5,52.5));
#316=CARTESIAN_POINT('',(-1.53080849893419E-15,40.,60.));
#317=CARTESIAN_POINT('Origin',(0.,27.5,60.));
#318=CARTESIAN_POINT('',(-1.53080849893419E-15,40.,52.5));
#319=CARTESIAN_POINT('Origin',(0.,27.5,72.5));
#320=CARTESIAN_POINT('',(-3.36777869765522E-15,55.,85.));
#321=CARTESIAN_POINT('Origin',(0.,27.5,85.));
#322=CARTESIAN_POINT('',(-2.44929359829471E-15,47.5,72.5));
#323=CARTESIAN_POINT('Origin',(0.,27.5,95.));
#324=CARTESIAN_POINT('',(-3.36777869765522E-15,55.,105.));
#325=CARTESIAN_POINT('Origin',(0.,27.5,105.));
#326=CARTESIAN_POINT('',(-3.36777869765522E-15,55.,95.));
#327=CARTESIAN_POINT('Origin',(0.,3.,105.));
#328=CARTESIAN_POINT('',(-3.00038465791102E-15,52.,105.));
#329=CARTESIAN_POINT('Origin',(0.,27.5,105.));
#330=CARTESIAN_POINT('Origin',(0.,27.5,95.));
#331=CARTESIAN_POINT('',(-3.00038465791102E-15,52.,85.));
#332=CARTESIAN_POINT('',(-3.00038465791102E-15,52.,95.));
#333=CARTESIAN_POINT('Origin',(0.,27.5,85.));
#334=CARTESIAN_POINT('Origin',(0.,5.,85.));
#335=CARTESIAN_POINT('',(-2.75545529808154E-15,50.,85.));
#336=CARTESIAN_POINT('Origin',(0.,27.5,85.));
#337=CARTESIAN_POINT('Origin',(0.,27.5,72.5));
#338=CARTESIAN_POINT('',(-9.18485099360515E-16,35.,60.));
#339=CARTESIAN_POINT('',(-1.83697019872103E-15,42.5,72.5));
#340=CARTESIAN_POINT('Origin',(0.,27.5,60.));
#341=CARTESIAN_POINT('Origin',(0.,27.5,30.));
#342=CARTESIAN_POINT('',(-2.57175827820944E-15,48.5,0.));
#343=CARTESIAN_POINT('',(-1.74512168878498E-15,41.75,30.));
#344=CARTESIAN_POINT('Origin',(0.,27.5,0.));
#345=CARTESIAN_POINT('Origin',(0.,5.,0.));
#346=CARTESIAN_POINT('',(-2.75545529808154E-15,50.,0.));
#347=CARTESIAN_POINT('Origin',(0.,27.5,0.));
#348=CARTESIAN_POINT('Origin',(0.,27.5,2.5));
#349=CARTESIAN_POINT('',(-2.75545529808154E-15,50.,5.));
#350=CARTESIAN_POINT('Origin',(0.,27.5,5.));
#351=CARTESIAN_POINT('',(-2.75545529808154E-15,50.,2.5));
#352=CARTESIAN_POINT('Origin',(0.,0.,5.));
#353=CARTESIAN_POINT('',(-3.36777869765522E-15,55.,5.));
#354=CARTESIAN_POINT('Origin',(0.,27.5,5.));
#355=CARTESIAN_POINT('Origin',(0.,27.5,7.5));
#356=CARTESIAN_POINT('',(-3.36777869765522E-15,55.,7.5));
#357=UNCERTAINTY_MEASURE_WITH_UNIT(LENGTH_MEASURE(0.01),#361,
'DISTANCE_ACCURACY_VALUE',
'Maximum model space distance between geometric entities at asserted c
onnectivities');
#358=UNCERTAINTY_MEASURE_WITH_UNIT(LENGTH_MEASURE(0.01),#361,
'DISTANCE_ACCURACY_VALUE',
'Maximum model space distance between geometric entities at asserted c
onnectivities');
#359=(
GEOMETRIC_REPRESENTATION_CONTEXT(3)
GLOBAL_UNCERTAINTY_ASSIGNED_CONTEXT((#357))
GLOBAL_UNIT_ASSIGNED_CONTEXT((#361,#363,#364))
REPRESENTATION_CONTEXT('','3D')
);
#360=(
GEOMETRIC_REPRESENTATION_CONTEXT(3)
GLOBAL_UNCERTAINTY_ASSIGNED_CONTEXT((#358))
GLOBAL_UNIT_ASSIGNED_CONTEXT((#361,#363,#364))
REPRESENTATION_CONTEXT('','3D')
);
#361=(
LENGTH_UNIT()
NAMED_UNIT(*)
SI_UNIT(.MILLI.,.METRE.)
);
#362=(
LENGTH_UNIT()
NAMED_UNIT(*)
SI_UNIT($,.METRE.)
);
#363=(
NAMED_UNIT(*)
PLANE_ANGLE_UNIT()
SI_UNIT($,.RADIAN.)
);
#364=(
NAMED_UNIT(*)
SI_UNIT($,.STERADIAN.)
SOLID_ANGLE_UNIT()
);
#365=SHAPE_DEFINITION_REPRESENTATION(#366,#367);
#366=PRODUCT_DEFINITION_SHAPE('',$,#369);
#367=SHAPE_REPRESENTATION('',(#209),#359);
#368=PRODUCT_DEFINITION_CONTEXT('part definition',#373,'design');
#369=PRODUCT_DEFINITION('tuy\X\E8re fus\X\E9e v5',
'tuy\X\E8re fus\X\E9e v5 v1',#370,#368);
#370=PRODUCT_DEFINITION_FORMATION('',$,#375);
#371=PRODUCT_RELATED_PRODUCT_CATEGORY('tuy\X\E8re fus\X\E9e v5 v1',
'tuy\X\E8re fus\X\E9e v5 v1',(#375));
#372=APPLICATION_PROTOCOL_DEFINITION('international standard',
'automotive_design',2009,#373);
#373=APPLICATION_CONTEXT(
'Core Data for Automotive Mechanical Design Process');
#374=PRODUCT_CONTEXT('part definition',#373,'mechanical');
#375=PRODUCT('tuy\X\E8re fus\X\E9e v5','tuy\X\E8re fus\X\E9e v5 v1',$,(#374));
#376=PRESENTATION_STYLE_ASSIGNMENT((#377));
#377=SURFACE_STYLE_USAGE(.BOTH.,#378);
#378=SURFACE_SIDE_STYLE('',(#379));
#379=SURFACE_STYLE_FILL_AREA(#380);
#380=FILL_AREA_STYLE('Acier - Satin\X\E9',(#381));
#381=FILL_AREA_STYLE_COLOUR('Acier - Satin\X\E9',#382);
#382=COLOUR_RGB('Acier - Satin\X\E9',0.627450980392157,0.627450980392157,
0.627450980392157);
ENDSEC;
END-ISO-10303-21;
