ISO-10303-21;
HEADER;
FILE_DESCRIPTION(('CATIA V5 STEP','CAx-IF Rec.Pracs.--- Model Styling and Organization---1.4--- 2014-01-23'),'2;1');

FILE_NAME('C:\\Users\\lvassieu\\Desktop\\Bureau\\Nouveau dossier\\Extracteur\\PRT_Extracteur.stp','2023-06-05T12:57:00+00:00',('none'),('none'),'CATIA Version 5-6 Release 2019 SP3 HF67','CATIA V5 STEP AP214 v1','none');

FILE_SCHEMA(('AUTOMOTIVE_DESIGN { 1 0 10303 214 1 1 1 1 }'));

ENDSEC;
DATA;
#5=PRODUCT('Part1','','',(#2)) ;
#2=PRODUCT_CONTEXT(' ',#1,'mechanical') ;
#1=APPLICATION_CONTEXT('automotive design') ;
#10=PRODUCT_DEFINITION('',' ',#6,#3) ;
#3=PRODUCT_DEFINITION_CONTEXT('part definition',#1,' ') ;
#11=PRODUCT_DEFINITION_SHAPE(' ',' ',#10) ;
#618=MECHANICAL_DESIGN_GEOMETRIC_PRESENTATION_REPRESENTATION(' ',(#29),#16) ;
#619=MECHANICAL_DESIGN_GEOMETRIC_PRESENTATION_REPRESENTATION(' ',(#615),#16) ;
#19=SHAPE_REPRESENTATION(' ',(#18),#16) ;
#18=AXIS2_PLACEMENT_3D(' ',#17,$,$) ;
#34=AXIS2_PLACEMENT_3D('Cylinder Axis2P3D',#31,#32,#33) ;
#47=AXIS2_PLACEMENT_3D('Circle Axis2P3D',#45,#46,$) ;
#61=AXIS2_PLACEMENT_3D('Circle Axis2P3D',#59,#60,$) ;
#74=AXIS2_PLACEMENT_3D('Plane Axis2P3D',#71,#72,#73) ;
#94=AXIS2_PLACEMENT_3D('Circle Axis2P3D',#92,#93,$) ;
#101=AXIS2_PLACEMENT_3D('Circle Axis2P3D',#99,#100,$) ;
#150=AXIS2_PLACEMENT_3D('Circle Axis2P3D',#148,#149,$) ;
#157=AXIS2_PLACEMENT_3D('Circle Axis2P3D',#155,#156,$) ;
#208=AXIS2_PLACEMENT_3D('Circle Axis2P3D',#206,#207,$) ;
#218=AXIS2_PLACEMENT_3D('Circle Axis2P3D',#216,#217,$) ;
#231=AXIS2_PLACEMENT_3D('Plane Axis2P3D',#228,#229,#230) ;
#262=AXIS2_PLACEMENT_3D('Plane Axis2P3D',#259,#260,#261) ;
#286=AXIS2_PLACEMENT_3D('Cylinder Axis2P3D',#283,#284,#285) ;
#290=AXIS2_PLACEMENT_3D('Circle Axis2P3D',#288,#289,$) ;
#310=AXIS2_PLACEMENT_3D('Cylinder Axis2P3D',#307,#308,#309) ;
#314=AXIS2_PLACEMENT_3D('Circle Axis2P3D',#312,#313,$) ;
#334=AXIS2_PLACEMENT_3D('Plane Axis2P3D',#331,#332,#333) ;
#377=AXIS2_PLACEMENT_3D('Plane Axis2P3D',#374,#375,#376) ;
#420=AXIS2_PLACEMENT_3D('Plane Axis2P3D',#417,#418,#419) ;
#463=AXIS2_PLACEMENT_3D('Cylinder Axis2P3D',#460,#461,#462) ;
#467=AXIS2_PLACEMENT_3D('Circle Axis2P3D',#465,#466,$) ;
#486=AXIS2_PLACEMENT_3D('Circle Axis2P3D',#484,#485,$) ;
#544=AXIS2_PLACEMENT_3D('Plane Axis2P3D',#541,#542,#543) ;
#580=AXIS2_PLACEMENT_3D('Plane Axis2P3D',#577,#578,#579) ;
#610=AXIS2_PLACEMENT_3D('Absolute Axis System',#607,#608,#609) ;
#17=CARTESIAN_POINT(' ',(0.,0.,0.)) ;
#31=CARTESIAN_POINT('Axis2P3D Location',(15.,0.,0.)) ;
#36=CARTESIAN_POINT('Line Origine',(0.,-5.053,-2.86279680498E-15)) ;
#40=CARTESIAN_POINT('Vertex',(-15.,-5.053,-2.86279680498E-15)) ;
#42=CARTESIAN_POINT('Vertex',(15.,-5.053,-2.86279680498E-15)) ;
#45=CARTESIAN_POINT('Axis2P3D Location',(-15.,0.,0.)) ;
#49=CARTESIAN_POINT('Vertex',(-15.,5.053,0.)) ;
#52=CARTESIAN_POINT('Line Origine',(0.,5.053,5.72559360996E-15)) ;
#56=CARTESIAN_POINT('Vertex',(15.,5.053,0.)) ;
#59=CARTESIAN_POINT('Axis2P3D Location',(15.,0.,0.)) ;
#71=CARTESIAN_POINT('Axis2P3D Location',(15.,0.,0.)) ;
#76=CARTESIAN_POINT('Line Origine',(15.,-65.,9.75)) ;
#80=CARTESIAN_POINT('Vertex',(15.,-65.,15.)) ;
#82=CARTESIAN_POINT('Vertex',(15.,-65.,4.5)) ;
#85=CARTESIAN_POINT('Line Origine',(15.,-40.5,4.5)) ;
#89=CARTESIAN_POINT('Vertex',(15.,-16.,4.5)) ;
#92=CARTESIAN_POINT('Axis2P3D Location',(15.,-16.,7.77156117238E-16)) ;
#96=CARTESIAN_POINT('Vertex',(15.,-11.5,7.77156117238E-16)) ;
#99=CARTESIAN_POINT('Axis2P3D Location',(15.,-16.,7.77156117238E-16)) ;
#103=CARTESIAN_POINT('Vertex',(15.,-16.,-4.5)) ;
#106=CARTESIAN_POINT('Line Origine',(15.,-40.5,-4.5)) ;
#110=CARTESIAN_POINT('Vertex',(15.,-65.,-4.5)) ;
#113=CARTESIAN_POINT('Line Origine',(15.,-65.,-9.75)) ;
#117=CARTESIAN_POINT('Vertex',(15.,-65.,-15.)) ;
#120=CARTESIAN_POINT('Line Origine',(15.,-32.5,-15.)) ;
#124=CARTESIAN_POINT('Vertex',(15.,0.,-15.)) ;
#127=CARTESIAN_POINT('Line Origine',(15.,32.5,-15.)) ;
#131=CARTESIAN_POINT('Vertex',(15.,65.,-15.)) ;
#134=CARTESIAN_POINT('Line Origine',(15.,65.,-9.75)) ;
#138=CARTESIAN_POINT('Vertex',(15.,65.,-4.5)) ;
#141=CARTESIAN_POINT('Line Origine',(15.,40.5,-4.5)) ;
#145=CARTESIAN_POINT('Vertex',(15.,16.,-4.5)) ;
#148=CARTESIAN_POINT('Axis2P3D Location',(15.,16.,-7.77156117238E-16)) ;
#152=CARTESIAN_POINT('Vertex',(15.,11.5,-2.26065057621E-16)) ;
#155=CARTESIAN_POINT('Axis2P3D Location',(15.,16.,7.77156117238E-16)) ;
#159=CARTESIAN_POINT('Vertex',(15.,16.,4.5)) ;
#162=CARTESIAN_POINT('Line Origine',(15.,40.5,4.5)) ;
#166=CARTESIAN_POINT('Vertex',(15.,65.,4.5)) ;
#169=CARTESIAN_POINT('Line Origine',(15.,65.,9.75)) ;
#173=CARTESIAN_POINT('Vertex',(15.,65.,15.)) ;
#176=CARTESIAN_POINT('Line Origine',(15.,32.5,15.)) ;
#180=CARTESIAN_POINT('Vertex',(15.,0.,15.)) ;
#183=CARTESIAN_POINT('Line Origine',(15.,-32.5,15.)) ;
#206=CARTESIAN_POINT('Axis2P3D Location',(15.,0.,0.)) ;
#216=CARTESIAN_POINT('Axis2P3D Location',(-15.,0.,0.)) ;
#228=CARTESIAN_POINT('Axis2P3D Location',(0.,-65.,15.)) ;
#233=CARTESIAN_POINT('Line Origine',(0.,-65.,15.)) ;
#237=CARTESIAN_POINT('Vertex',(-15.,-65.,15.)) ;
#240=CARTESIAN_POINT('Line Origine',(-15.,-65.,9.75)) ;
#244=CARTESIAN_POINT('Vertex',(-15.,-65.,4.5)) ;
#247=CARTESIAN_POINT('Line Origine',(0.,-65.,4.5)) ;
#259=CARTESIAN_POINT('Axis2P3D Location',(0.,-65.,4.5)) ;
#264=CARTESIAN_POINT('Line Origine',(-15.,-40.5,4.5)) ;
#268=CARTESIAN_POINT('Vertex',(-15.,-16.,4.5)) ;
#271=CARTESIAN_POINT('Line Origine',(0.,-16.,4.5)) ;
#283=CARTESIAN_POINT('Axis2P3D Location',(0.,-16.,7.77156117238E-16)) ;
#288=CARTESIAN_POINT('Axis2P3D Location',(-15.,-16.,7.77156117238E-16)) ;
#292=CARTESIAN_POINT('Vertex',(-15.,-11.5,7.77156117238E-16)) ;
#295=CARTESIAN_POINT('Line Origine',(0.,-11.5,7.77156117238E-16)) ;
#307=CARTESIAN_POINT('Axis2P3D Location',(0.,-16.,7.77156117238E-16)) ;
#312=CARTESIAN_POINT('Axis2P3D Location',(-15.,-16.,7.77156117238E-16)) ;
#316=CARTESIAN_POINT('Vertex',(-15.,-16.,-4.5)) ;
#319=CARTESIAN_POINT('Line Origine',(0.,-16.,-4.5)) ;
#331=CARTESIAN_POINT('Axis2P3D Location',(0.,-65.,-4.5)) ;
#336=CARTESIAN_POINT('Line Origine',(-15.,-40.5,-4.5)) ;
#340=CARTESIAN_POINT('Vertex',(-15.,-65.,-4.5)) ;
#343=CARTESIAN_POINT('Line Origine',(0.,-65.,-4.5)) ;
#355=CARTESIAN_POINT('Line Origine',(-15.,-65.,-9.75)) ;
#359=CARTESIAN_POINT('Vertex',(-15.,-65.,-15.)) ;
#362=CARTESIAN_POINT('Line Origine',(0.,-65.,-15.)) ;
#374=CARTESIAN_POINT('Axis2P3D Location',(0.,-65.,-15.)) ;
#379=CARTESIAN_POINT('Line Origine',(-15.,-32.5,-15.)) ;
#383=CARTESIAN_POINT('Vertex',(-15.,0.,-15.)) ;
#386=CARTESIAN_POINT('Line Origine',(0.,0.,-15.)) ;
#398=CARTESIAN_POINT('Line Origine',(-15.,32.5,-15.)) ;
#402=CARTESIAN_POINT('Vertex',(-15.,65.,-15.)) ;
#405=CARTESIAN_POINT('Line Origine',(0.,65.,-15.)) ;
#417=CARTESIAN_POINT('Axis2P3D Location',(0.,65.,-15.)) ;
#422=CARTESIAN_POINT('Line Origine',(-15.,65.,-9.75)) ;
#426=CARTESIAN_POINT('Vertex',(-15.,65.,-4.5)) ;
#429=CARTESIAN_POINT('Line Origine',(0.,65.,-4.5)) ;
#441=CARTESIAN_POINT('Line Origine',(-15.,40.5,-4.5)) ;
#445=CARTESIAN_POINT('Vertex',(-15.,16.,-4.5)) ;
#448=CARTESIAN_POINT('Line Origine',(0.,16.,-4.5)) ;
#460=CARTESIAN_POINT('Axis2P3D Location',(0.,16.,-7.77156117238E-16)) ;
#465=CARTESIAN_POINT('Axis2P3D Location',(-15.,16.,-7.77156117238E-16)) ;
#469=CARTESIAN_POINT('Vertex',(-15.,11.5,-2.26065057621E-16)) ;
#472=CARTESIAN_POINT('Line Origine',(0.,11.5,-2.26065057621E-16)) ;
#484=CARTESIAN_POINT('Axis2P3D Location',(-15.,16.,-7.77156117238E-16)) ;
#488=CARTESIAN_POINT('Vertex',(-15.,16.,4.5)) ;
#491=CARTESIAN_POINT('Line Origine',(0.,16.,4.5)) ;
#503=CARTESIAN_POINT('Line Origine',(-15.,40.5,4.5)) ;
#507=CARTESIAN_POINT('Vertex',(-15.,65.,4.5)) ;
#510=CARTESIAN_POINT('Line Origine',(0.,65.,4.5)) ;
#522=CARTESIAN_POINT('Line Origine',(-15.,65.,9.75)) ;
#526=CARTESIAN_POINT('Vertex',(-15.,65.,15.)) ;
#529=CARTESIAN_POINT('Line Origine',(0.,65.,15.)) ;
#541=CARTESIAN_POINT('Axis2P3D Location',(0.,65.,15.)) ;
#546=CARTESIAN_POINT('Line Origine',(-15.,32.5,15.)) ;
#550=CARTESIAN_POINT('Vertex',(-15.,0.,15.)) ;
#553=CARTESIAN_POINT('Line Origine',(0.,0.,15.)) ;
#565=CARTESIAN_POINT('Line Origine',(-15.,-32.5,15.)) ;
#577=CARTESIAN_POINT('Axis2P3D Location',(-15.,0.,0.)) ;
#607=CARTESIAN_POINT('Axis2P3D Location',(0.,0.,0.)) ;
#32=DIRECTION('Axis2P3D Direction',(-1.,0.,-0.)) ;
#33=DIRECTION('Axis2P3D XDirection',(0.,1.,0.)) ;
#37=DIRECTION('Vector Direction',(-1.,0.,0.)) ;
#46=DIRECTION('Axis2P3D Direction',(-1.,0.,-0.)) ;
#53=DIRECTION('Vector Direction',(-1.,0.,0.)) ;
#60=DIRECTION('Axis2P3D Direction',(-1.,0.,-0.)) ;
#72=DIRECTION('Axis2P3D Direction',(1.,0.,0.)) ;
#73=DIRECTION('Axis2P3D XDirection',(0.,1.,0.)) ;
#77=DIRECTION('Vector Direction',(0.,0.,-1.)) ;
#86=DIRECTION('Vector Direction',(0.,1.,0.)) ;
#93=DIRECTION('Axis2P3D Direction',(1.,0.,0.)) ;
#100=DIRECTION('Axis2P3D Direction',(1.,0.,0.)) ;
#107=DIRECTION('Vector Direction',(0.,1.,0.)) ;
#114=DIRECTION('Vector Direction',(0.,0.,1.)) ;
#121=DIRECTION('Vector Direction',(0.,1.,0.)) ;
#128=DIRECTION('Vector Direction',(0.,-1.,0.)) ;
#135=DIRECTION('Vector Direction',(0.,0.,1.)) ;
#142=DIRECTION('Vector Direction',(0.,-1.,0.)) ;
#149=DIRECTION('Axis2P3D Direction',(1.,0.,0.)) ;
#156=DIRECTION('Axis2P3D Direction',(1.,0.,0.)) ;
#163=DIRECTION('Vector Direction',(0.,-1.,0.)) ;
#170=DIRECTION('Vector Direction',(0.,0.,-1.)) ;
#177=DIRECTION('Vector Direction',(0.,-1.,0.)) ;
#184=DIRECTION('Vector Direction',(0.,1.,0.)) ;
#207=DIRECTION('Axis2P3D Direction',(1.,0.,0.)) ;
#217=DIRECTION('Axis2P3D Direction',(-1.,0.,-0.)) ;
#229=DIRECTION('Axis2P3D Direction',(0.,-1.,0.)) ;
#230=DIRECTION('Axis2P3D XDirection',(0.,0.,-1.)) ;
#234=DIRECTION('Vector Direction',(1.,0.,0.)) ;
#241=DIRECTION('Vector Direction',(0.,0.,-1.)) ;
#248=DIRECTION('Vector Direction',(1.,0.,0.)) ;
#260=DIRECTION('Axis2P3D Direction',(0.,0.,-1.)) ;
#261=DIRECTION('Axis2P3D XDirection',(0.,1.,0.)) ;
#265=DIRECTION('Vector Direction',(0.,1.,0.)) ;
#272=DIRECTION('Vector Direction',(1.,0.,0.)) ;
#284=DIRECTION('Axis2P3D Direction',(1.,0.,0.)) ;
#285=DIRECTION('Axis2P3D XDirection',(0.,1.,0.)) ;
#289=DIRECTION('Axis2P3D Direction',(1.,0.,0.)) ;
#296=DIRECTION('Vector Direction',(1.,0.,0.)) ;
#308=DIRECTION('Axis2P3D Direction',(1.,0.,0.)) ;
#309=DIRECTION('Axis2P3D XDirection',(-0.,-1.07187543957E-15,-1.)) ;
#313=DIRECTION('Axis2P3D Direction',(1.,0.,0.)) ;
#320=DIRECTION('Vector Direction',(1.,0.,0.)) ;
#332=DIRECTION('Axis2P3D Direction',(0.,0.,-1.)) ;
#333=DIRECTION('Axis2P3D XDirection',(0.,1.,0.)) ;
#337=DIRECTION('Vector Direction',(0.,1.,0.)) ;
#344=DIRECTION('Vector Direction',(1.,0.,0.)) ;
#356=DIRECTION('Vector Direction',(0.,0.,1.)) ;
#363=DIRECTION('Vector Direction',(1.,0.,0.)) ;
#375=DIRECTION('Axis2P3D Direction',(0.,0.,-1.)) ;
#376=DIRECTION('Axis2P3D XDirection',(0.,1.,0.)) ;
#380=DIRECTION('Vector Direction',(0.,1.,0.)) ;
#387=DIRECTION('Vector Direction',(1.,0.,0.)) ;
#399=DIRECTION('Vector Direction',(0.,-1.,0.)) ;
#406=DIRECTION('Vector Direction',(1.,0.,0.)) ;
#418=DIRECTION('Axis2P3D Direction',(0.,1.,0.)) ;
#419=DIRECTION('Axis2P3D XDirection',(0.,0.,1.)) ;
#423=DIRECTION('Vector Direction',(0.,0.,1.)) ;
#430=DIRECTION('Vector Direction',(1.,0.,0.)) ;
#442=DIRECTION('Vector Direction',(0.,-1.,0.)) ;
#449=DIRECTION('Vector Direction',(1.,0.,0.)) ;
#461=DIRECTION('Axis2P3D Direction',(1.,0.,0.)) ;
#462=DIRECTION('Axis2P3D XDirection',(0.,6.12323399574E-17,1.)) ;
#466=DIRECTION('Axis2P3D Direction',(1.,0.,0.)) ;
#473=DIRECTION('Vector Direction',(1.,0.,0.)) ;
#485=DIRECTION('Axis2P3D Direction',(1.,0.,0.)) ;
#492=DIRECTION('Vector Direction',(1.,0.,0.)) ;
#504=DIRECTION('Vector Direction',(0.,-1.,0.)) ;
#511=DIRECTION('Vector Direction',(1.,0.,0.)) ;
#523=DIRECTION('Vector Direction',(0.,0.,-1.)) ;
#530=DIRECTION('Vector Direction',(1.,0.,0.)) ;
#542=DIRECTION('Axis2P3D Direction',(-0.,0.,1.)) ;
#543=DIRECTION('Axis2P3D XDirection',(0.,-1.,0.)) ;
#547=DIRECTION('Vector Direction',(0.,-1.,0.)) ;
#554=DIRECTION('Vector Direction',(1.,0.,0.)) ;
#566=DIRECTION('Vector Direction',(0.,1.,0.)) ;
#578=DIRECTION('Axis2P3D Direction',(1.,0.,0.)) ;
#579=DIRECTION('Axis2P3D XDirection',(0.,1.,0.)) ;
#608=DIRECTION('Axis2P3D Direction',(0.,0.,1.)) ;
#609=DIRECTION('Axis2P3D XDirection',(1.,0.,0.)) ;
#8=PRODUCT_RELATED_PRODUCT_CATEGORY('part',$,(#5)) ;
#7=PRODUCT_CATEGORY('part','specification') ;
#29=STYLED_ITEM(' ',(#28),#21) ;
#615=STYLED_ITEM(' ',(#614),#610) ;
#28=PRESENTATION_STYLE_ASSIGNMENT((#27)) ;
#614=PRESENTATION_STYLE_ASSIGNMENT((#613)) ;
#613=CURVE_STYLE(' ',#611,POSITIVE_LENGTH_MEASURE(0.129999995232),#612) ;
#27=SURFACE_STYLE_USAGE(.BOTH.,#26) ;
#26=SURFACE_SIDE_STYLE(' ',(#25)) ;
#25=SURFACE_STYLE_FILL_AREA(#24) ;
#24=FILL_AREA_STYLE(' ',(#23)) ;
#23=FILL_AREA_STYLE_COLOUR(' ',#22) ;
#38=VECTOR('Line Direction',#37,1.) ;
#54=VECTOR('Line Direction',#53,1.) ;
#78=VECTOR('Line Direction',#77,1.) ;
#87=VECTOR('Line Direction',#86,1.) ;
#108=VECTOR('Line Direction',#107,1.) ;
#115=VECTOR('Line Direction',#114,1.) ;
#122=VECTOR('Line Direction',#121,1.) ;
#129=VECTOR('Line Direction',#128,1.) ;
#136=VECTOR('Line Direction',#135,1.) ;
#143=VECTOR('Line Direction',#142,1.) ;
#164=VECTOR('Line Direction',#163,1.) ;
#171=VECTOR('Line Direction',#170,1.) ;
#178=VECTOR('Line Direction',#177,1.) ;
#185=VECTOR('Line Direction',#184,1.) ;
#235=VECTOR('Line Direction',#234,1.) ;
#242=VECTOR('Line Direction',#241,1.) ;
#249=VECTOR('Line Direction',#248,1.) ;
#266=VECTOR('Line Direction',#265,1.) ;
#273=VECTOR('Line Direction',#272,1.) ;
#297=VECTOR('Line Direction',#296,1.) ;
#321=VECTOR('Line Direction',#320,1.) ;
#338=VECTOR('Line Direction',#337,1.) ;
#345=VECTOR('Line Direction',#344,1.) ;
#357=VECTOR('Line Direction',#356,1.) ;
#364=VECTOR('Line Direction',#363,1.) ;
#381=VECTOR('Line Direction',#380,1.) ;
#388=VECTOR('Line Direction',#387,1.) ;
#400=VECTOR('Line Direction',#399,1.) ;
#407=VECTOR('Line Direction',#406,1.) ;
#424=VECTOR('Line Direction',#423,1.) ;
#431=VECTOR('Line Direction',#430,1.) ;
#443=VECTOR('Line Direction',#442,1.) ;
#450=VECTOR('Line Direction',#449,1.) ;
#474=VECTOR('Line Direction',#473,1.) ;
#493=VECTOR('Line Direction',#492,1.) ;
#505=VECTOR('Line Direction',#504,1.) ;
#512=VECTOR('Line Direction',#511,1.) ;
#524=VECTOR('Line Direction',#523,1.) ;
#531=VECTOR('Line Direction',#530,1.) ;
#548=VECTOR('Line Direction',#547,1.) ;
#555=VECTOR('Line Direction',#554,1.) ;
#567=VECTOR('Line Direction',#566,1.) ;
#15=UNCERTAINTY_MEASURE_WITH_UNIT(LENGTH_MEASURE(0.005),#12,'distance_accuracy_value','CONFUSED CURVE UNCERTAINTY') ;
#606=SHAPE_REPRESENTATION_RELATIONSHIP(' ',' ',#19,#605) ;
#65=ORIENTED_EDGE('',*,*,#44,.F.) ;
#66=ORIENTED_EDGE('',*,*,#51,.F.) ;
#67=ORIENTED_EDGE('',*,*,#58,.T.) ;
#68=ORIENTED_EDGE('',*,*,#63,.T.) ;
#189=ORIENTED_EDGE('',*,*,#84,.T.) ;
#190=ORIENTED_EDGE('',*,*,#91,.T.) ;
#191=ORIENTED_EDGE('',*,*,#98,.T.) ;
#192=ORIENTED_EDGE('',*,*,#105,.T.) ;
#193=ORIENTED_EDGE('',*,*,#112,.T.) ;
#194=ORIENTED_EDGE('',*,*,#119,.T.) ;
#195=ORIENTED_EDGE('',*,*,#126,.T.) ;
#196=ORIENTED_EDGE('',*,*,#133,.T.) ;
#197=ORIENTED_EDGE('',*,*,#140,.T.) ;
#198=ORIENTED_EDGE('',*,*,#147,.T.) ;
#199=ORIENTED_EDGE('',*,*,#154,.T.) ;
#200=ORIENTED_EDGE('',*,*,#161,.T.) ;
#201=ORIENTED_EDGE('',*,*,#168,.T.) ;
#202=ORIENTED_EDGE('',*,*,#175,.T.) ;
#203=ORIENTED_EDGE('',*,*,#182,.T.) ;
#204=ORIENTED_EDGE('',*,*,#187,.T.) ;
#212=ORIENTED_EDGE('',*,*,#210,.F.) ;
#213=ORIENTED_EDGE('',*,*,#63,.F.) ;
#222=ORIENTED_EDGE('',*,*,#58,.F.) ;
#223=ORIENTED_EDGE('',*,*,#220,.F.) ;
#224=ORIENTED_EDGE('',*,*,#44,.T.) ;
#225=ORIENTED_EDGE('',*,*,#210,.T.) ;
#253=ORIENTED_EDGE('',*,*,#239,.F.) ;
#254=ORIENTED_EDGE('',*,*,#246,.T.) ;
#255=ORIENTED_EDGE('',*,*,#251,.T.) ;
#256=ORIENTED_EDGE('',*,*,#84,.F.) ;
#277=ORIENTED_EDGE('',*,*,#251,.F.) ;
#278=ORIENTED_EDGE('',*,*,#270,.T.) ;
#279=ORIENTED_EDGE('',*,*,#275,.T.) ;
#280=ORIENTED_EDGE('',*,*,#91,.F.) ;
#301=ORIENTED_EDGE('',*,*,#275,.F.) ;
#302=ORIENTED_EDGE('',*,*,#294,.T.) ;
#303=ORIENTED_EDGE('',*,*,#299,.T.) ;
#304=ORIENTED_EDGE('',*,*,#98,.F.) ;
#325=ORIENTED_EDGE('',*,*,#299,.F.) ;
#326=ORIENTED_EDGE('',*,*,#318,.T.) ;
#327=ORIENTED_EDGE('',*,*,#323,.T.) ;
#328=ORIENTED_EDGE('',*,*,#105,.F.) ;
#349=ORIENTED_EDGE('',*,*,#323,.F.) ;
#350=ORIENTED_EDGE('',*,*,#342,.T.) ;
#351=ORIENTED_EDGE('',*,*,#347,.T.) ;
#352=ORIENTED_EDGE('',*,*,#112,.F.) ;
#368=ORIENTED_EDGE('',*,*,#347,.F.) ;
#369=ORIENTED_EDGE('',*,*,#361,.T.) ;
#370=ORIENTED_EDGE('',*,*,#366,.T.) ;
#371=ORIENTED_EDGE('',*,*,#119,.F.) ;
#392=ORIENTED_EDGE('',*,*,#366,.F.) ;
#393=ORIENTED_EDGE('',*,*,#385,.T.) ;
#394=ORIENTED_EDGE('',*,*,#390,.T.) ;
#395=ORIENTED_EDGE('',*,*,#126,.F.) ;
#411=ORIENTED_EDGE('',*,*,#390,.F.) ;
#412=ORIENTED_EDGE('',*,*,#404,.T.) ;
#413=ORIENTED_EDGE('',*,*,#409,.T.) ;
#414=ORIENTED_EDGE('',*,*,#133,.F.) ;
#435=ORIENTED_EDGE('',*,*,#409,.F.) ;
#436=ORIENTED_EDGE('',*,*,#428,.T.) ;
#437=ORIENTED_EDGE('',*,*,#433,.T.) ;
#438=ORIENTED_EDGE('',*,*,#140,.F.) ;
#454=ORIENTED_EDGE('',*,*,#433,.F.) ;
#455=ORIENTED_EDGE('',*,*,#447,.T.) ;
#456=ORIENTED_EDGE('',*,*,#452,.T.) ;
#457=ORIENTED_EDGE('',*,*,#147,.F.) ;
#478=ORIENTED_EDGE('',*,*,#452,.F.) ;
#479=ORIENTED_EDGE('',*,*,#471,.T.) ;
#480=ORIENTED_EDGE('',*,*,#476,.T.) ;
#481=ORIENTED_EDGE('',*,*,#154,.F.) ;
#497=ORIENTED_EDGE('',*,*,#476,.F.) ;
#498=ORIENTED_EDGE('',*,*,#490,.T.) ;
#499=ORIENTED_EDGE('',*,*,#495,.T.) ;
#500=ORIENTED_EDGE('',*,*,#161,.F.) ;
#516=ORIENTED_EDGE('',*,*,#495,.F.) ;
#517=ORIENTED_EDGE('',*,*,#509,.T.) ;
#518=ORIENTED_EDGE('',*,*,#514,.T.) ;
#519=ORIENTED_EDGE('',*,*,#168,.F.) ;
#535=ORIENTED_EDGE('',*,*,#514,.F.) ;
#536=ORIENTED_EDGE('',*,*,#528,.T.) ;
#537=ORIENTED_EDGE('',*,*,#533,.T.) ;
#538=ORIENTED_EDGE('',*,*,#175,.F.) ;
#559=ORIENTED_EDGE('',*,*,#533,.F.) ;
#560=ORIENTED_EDGE('',*,*,#552,.T.) ;
#561=ORIENTED_EDGE('',*,*,#557,.T.) ;
#562=ORIENTED_EDGE('',*,*,#182,.F.) ;
#571=ORIENTED_EDGE('',*,*,#557,.F.) ;
#572=ORIENTED_EDGE('',*,*,#569,.T.) ;
#573=ORIENTED_EDGE('',*,*,#239,.T.) ;
#574=ORIENTED_EDGE('',*,*,#187,.F.) ;
#583=ORIENTED_EDGE('',*,*,#569,.F.) ;
#584=ORIENTED_EDGE('',*,*,#552,.F.) ;
#585=ORIENTED_EDGE('',*,*,#528,.F.) ;
#586=ORIENTED_EDGE('',*,*,#509,.F.) ;
#587=ORIENTED_EDGE('',*,*,#490,.F.) ;
#588=ORIENTED_EDGE('',*,*,#471,.F.) ;
#589=ORIENTED_EDGE('',*,*,#447,.F.) ;
#590=ORIENTED_EDGE('',*,*,#428,.F.) ;
#591=ORIENTED_EDGE('',*,*,#404,.F.) ;
#592=ORIENTED_EDGE('',*,*,#385,.F.) ;
#593=ORIENTED_EDGE('',*,*,#361,.F.) ;
#594=ORIENTED_EDGE('',*,*,#342,.F.) ;
#595=ORIENTED_EDGE('',*,*,#318,.F.) ;
#596=ORIENTED_EDGE('',*,*,#294,.F.) ;
#597=ORIENTED_EDGE('',*,*,#270,.F.) ;
#598=ORIENTED_EDGE('',*,*,#246,.F.) ;
#601=ORIENTED_EDGE('',*,*,#51,.T.) ;
#602=ORIENTED_EDGE('',*,*,#220,.T.) ;
#214=FACE_BOUND('',#211,.T.) ;
#603=FACE_BOUND('',#600,.T.) ;
#30=CLOSED_SHELL('Closed Shell',(#70,#215,#227,#258,#282,#306,#330,#354,#373,#397,#416,#440,#459,#483,#502,#521,#540,#564,#576,#604)) ;
#605=ADVANCED_BREP_SHAPE_REPRESENTATION('NONE',(#21),#16) ;
#70=ADVANCED_FACE('Body.2',(#69),#35,.F.) ;
#215=ADVANCED_FACE('Body.2',(#205,#214),#75,.T.) ;
#227=ADVANCED_FACE('Body.2',(#226),#35,.F.) ;
#258=ADVANCED_FACE('Body.2',(#257),#232,.T.) ;
#282=ADVANCED_FACE('Body.2',(#281),#263,.T.) ;
#306=ADVANCED_FACE('Body.2',(#305),#287,.F.) ;
#330=ADVANCED_FACE('Body.2',(#329),#311,.F.) ;
#354=ADVANCED_FACE('Body.2',(#353),#335,.F.) ;
#373=ADVANCED_FACE('Body.2',(#372),#232,.T.) ;
#397=ADVANCED_FACE('Body.2',(#396),#378,.T.) ;
#416=ADVANCED_FACE('Body.2',(#415),#378,.T.) ;
#440=ADVANCED_FACE('Body.2',(#439),#421,.T.) ;
#459=ADVANCED_FACE('Body.2',(#458),#335,.F.) ;
#483=ADVANCED_FACE('Body.2',(#482),#464,.F.) ;
#502=ADVANCED_FACE('Body.2',(#501),#464,.F.) ;
#521=ADVANCED_FACE('Body.2',(#520),#263,.T.) ;
#540=ADVANCED_FACE('Body.2',(#539),#421,.T.) ;
#564=ADVANCED_FACE('Body.2',(#563),#545,.T.) ;
#576=ADVANCED_FACE('Body.2',(#575),#545,.T.) ;
#604=ADVANCED_FACE('Body.2',(#599,#603),#581,.F.) ;
#4=APPLICATION_PROTOCOL_DEFINITION('international standard','automotive_design',2001,#1) ;
#21=MANIFOLD_SOLID_BREP('Body.2',#30) ;
#48=CIRCLE('generated circle',#47,5.053) ;
#62=CIRCLE('generated circle',#61,5.053) ;
#95=CIRCLE('generated circle',#94,4.5) ;
#102=CIRCLE('generated circle',#101,4.5) ;
#151=CIRCLE('generated circle',#150,4.5) ;
#158=CIRCLE('generated circle',#157,4.5) ;
#209=CIRCLE('generated circle',#208,5.053) ;
#219=CIRCLE('generated circle',#218,5.053) ;
#291=CIRCLE('generated circle',#290,4.5) ;
#315=CIRCLE('generated circle',#314,4.5) ;
#468=CIRCLE('generated circle',#467,4.5) ;
#487=CIRCLE('generated circle',#486,4.5) ;
#22=COLOUR_RGB('Colour',0.823529411765,0.823529411765,1.) ;
#616=CONSTRUCTIVE_GEOMETRY_REPRESENTATION('supplemental geometry',(#610),#16) ;
#617=CONSTRUCTIVE_GEOMETRY_REPRESENTATION_RELATIONSHIP('supplemental geometry','',#19,#616) ;
#35=CYLINDRICAL_SURFACE('generated cylinder',#34,5.053) ;
#287=CYLINDRICAL_SURFACE('generated cylinder',#286,4.5) ;
#311=CYLINDRICAL_SURFACE('generated cylinder',#310,4.5) ;
#464=CYLINDRICAL_SURFACE('generated cylinder',#463,4.5) ;
#612=DRAUGHTING_PRE_DEFINED_COLOUR('white') ;
#611=DRAUGHTING_PRE_DEFINED_CURVE_FONT('continuous') ;
#44=EDGE_CURVE('',#41,#43,#39,.F.) ;
#51=EDGE_CURVE('',#50,#41,#48,.F.) ;
#58=EDGE_CURVE('',#50,#57,#55,.F.) ;
#63=EDGE_CURVE('',#57,#43,#62,.F.) ;
#84=EDGE_CURVE('',#81,#83,#79,.T.) ;
#91=EDGE_CURVE('',#83,#90,#88,.T.) ;
#98=EDGE_CURVE('',#90,#97,#95,.F.) ;
#105=EDGE_CURVE('',#97,#104,#102,.F.) ;
#112=EDGE_CURVE('',#104,#111,#109,.F.) ;
#119=EDGE_CURVE('',#111,#118,#116,.F.) ;
#126=EDGE_CURVE('',#118,#125,#123,.T.) ;
#133=EDGE_CURVE('',#125,#132,#130,.F.) ;
#140=EDGE_CURVE('',#132,#139,#137,.T.) ;
#147=EDGE_CURVE('',#139,#146,#144,.T.) ;
#154=EDGE_CURVE('',#146,#153,#151,.F.) ;
#161=EDGE_CURVE('',#153,#160,#158,.F.) ;
#168=EDGE_CURVE('',#160,#167,#165,.F.) ;
#175=EDGE_CURVE('',#167,#174,#172,.F.) ;
#182=EDGE_CURVE('',#174,#181,#179,.T.) ;
#187=EDGE_CURVE('',#181,#81,#186,.F.) ;
#210=EDGE_CURVE('',#43,#57,#209,.T.) ;
#220=EDGE_CURVE('',#41,#50,#219,.F.) ;
#239=EDGE_CURVE('',#238,#81,#236,.T.) ;
#246=EDGE_CURVE('',#238,#245,#243,.T.) ;
#251=EDGE_CURVE('',#245,#83,#250,.T.) ;
#270=EDGE_CURVE('',#245,#269,#267,.T.) ;
#275=EDGE_CURVE('',#269,#90,#274,.T.) ;
#294=EDGE_CURVE('',#269,#293,#291,.F.) ;
#299=EDGE_CURVE('',#293,#97,#298,.T.) ;
#318=EDGE_CURVE('',#293,#317,#315,.F.) ;
#323=EDGE_CURVE('',#317,#104,#322,.T.) ;
#342=EDGE_CURVE('',#317,#341,#339,.F.) ;
#347=EDGE_CURVE('',#341,#111,#346,.T.) ;
#361=EDGE_CURVE('',#341,#360,#358,.F.) ;
#366=EDGE_CURVE('',#360,#118,#365,.T.) ;
#385=EDGE_CURVE('',#360,#384,#382,.T.) ;
#390=EDGE_CURVE('',#384,#125,#389,.T.) ;
#404=EDGE_CURVE('',#384,#403,#401,.F.) ;
#409=EDGE_CURVE('',#403,#132,#408,.T.) ;
#428=EDGE_CURVE('',#403,#427,#425,.T.) ;
#433=EDGE_CURVE('',#427,#139,#432,.T.) ;
#447=EDGE_CURVE('',#427,#446,#444,.T.) ;
#452=EDGE_CURVE('',#446,#146,#451,.T.) ;
#471=EDGE_CURVE('',#446,#470,#468,.F.) ;
#476=EDGE_CURVE('',#470,#153,#475,.T.) ;
#490=EDGE_CURVE('',#470,#489,#487,.F.) ;
#495=EDGE_CURVE('',#489,#160,#494,.T.) ;
#509=EDGE_CURVE('',#489,#508,#506,.F.) ;
#514=EDGE_CURVE('',#508,#167,#513,.T.) ;
#528=EDGE_CURVE('',#508,#527,#525,.F.) ;
#533=EDGE_CURVE('',#527,#174,#532,.T.) ;
#552=EDGE_CURVE('',#527,#551,#549,.T.) ;
#557=EDGE_CURVE('',#551,#181,#556,.T.) ;
#569=EDGE_CURVE('',#551,#238,#568,.F.) ;
#64=EDGE_LOOP('',(#65,#66,#67,#68)) ;
#188=EDGE_LOOP('',(#189,#190,#191,#192,#193,#194,#195,#196,#197,#198,#199,#200,#201,#202,#203,#204)) ;
#211=EDGE_LOOP('',(#212,#213)) ;
#221=EDGE_LOOP('',(#222,#223,#224,#225)) ;
#252=EDGE_LOOP('',(#253,#254,#255,#256)) ;
#276=EDGE_LOOP('',(#277,#278,#279,#280)) ;
#300=EDGE_LOOP('',(#301,#302,#303,#304)) ;
#324=EDGE_LOOP('',(#325,#326,#327,#328)) ;
#348=EDGE_LOOP('',(#349,#350,#351,#352)) ;
#367=EDGE_LOOP('',(#368,#369,#370,#371)) ;
#391=EDGE_LOOP('',(#392,#393,#394,#395)) ;
#410=EDGE_LOOP('',(#411,#412,#413,#414)) ;
#434=EDGE_LOOP('',(#435,#436,#437,#438)) ;
#453=EDGE_LOOP('',(#454,#455,#456,#457)) ;
#477=EDGE_LOOP('',(#478,#479,#480,#481)) ;
#496=EDGE_LOOP('',(#497,#498,#499,#500)) ;
#515=EDGE_LOOP('',(#516,#517,#518,#519)) ;
#534=EDGE_LOOP('',(#535,#536,#537,#538)) ;
#558=EDGE_LOOP('',(#559,#560,#561,#562)) ;
#570=EDGE_LOOP('',(#571,#572,#573,#574)) ;
#582=EDGE_LOOP('',(#583,#584,#585,#586,#587,#588,#589,#590,#591,#592,#593,#594,#595,#596,#597,#598)) ;
#600=EDGE_LOOP('',(#601,#602)) ;
#69=FACE_OUTER_BOUND('',#64,.T.) ;
#205=FACE_OUTER_BOUND('',#188,.T.) ;
#226=FACE_OUTER_BOUND('',#221,.T.) ;
#257=FACE_OUTER_BOUND('',#252,.T.) ;
#281=FACE_OUTER_BOUND('',#276,.T.) ;
#305=FACE_OUTER_BOUND('',#300,.T.) ;
#329=FACE_OUTER_BOUND('',#324,.T.) ;
#353=FACE_OUTER_BOUND('',#348,.T.) ;
#372=FACE_OUTER_BOUND('',#367,.T.) ;
#396=FACE_OUTER_BOUND('',#391,.T.) ;
#415=FACE_OUTER_BOUND('',#410,.T.) ;
#439=FACE_OUTER_BOUND('',#434,.T.) ;
#458=FACE_OUTER_BOUND('',#453,.T.) ;
#482=FACE_OUTER_BOUND('',#477,.T.) ;
#501=FACE_OUTER_BOUND('',#496,.T.) ;
#520=FACE_OUTER_BOUND('',#515,.T.) ;
#539=FACE_OUTER_BOUND('',#534,.T.) ;
#563=FACE_OUTER_BOUND('',#558,.T.) ;
#575=FACE_OUTER_BOUND('',#570,.T.) ;
#599=FACE_OUTER_BOUND('',#582,.T.) ;
#39=LINE('Line',#36,#38) ;
#55=LINE('Line',#52,#54) ;
#79=LINE('Line',#76,#78) ;
#88=LINE('Line',#85,#87) ;
#109=LINE('Line',#106,#108) ;
#116=LINE('Line',#113,#115) ;
#123=LINE('Line',#120,#122) ;
#130=LINE('Line',#127,#129) ;
#137=LINE('Line',#134,#136) ;
#144=LINE('Line',#141,#143) ;
#165=LINE('Line',#162,#164) ;
#172=LINE('Line',#169,#171) ;
#179=LINE('Line',#176,#178) ;
#186=LINE('Line',#183,#185) ;
#236=LINE('Line',#233,#235) ;
#243=LINE('Line',#240,#242) ;
#250=LINE('Line',#247,#249) ;
#267=LINE('Line',#264,#266) ;
#274=LINE('Line',#271,#273) ;
#298=LINE('Line',#295,#297) ;
#322=LINE('Line',#319,#321) ;
#339=LINE('Line',#336,#338) ;
#346=LINE('Line',#343,#345) ;
#358=LINE('Line',#355,#357) ;
#365=LINE('Line',#362,#364) ;
#382=LINE('Line',#379,#381) ;
#389=LINE('Line',#386,#388) ;
#401=LINE('Line',#398,#400) ;
#408=LINE('Line',#405,#407) ;
#425=LINE('Line',#422,#424) ;
#432=LINE('Line',#429,#431) ;
#444=LINE('Line',#441,#443) ;
#451=LINE('Line',#448,#450) ;
#475=LINE('Line',#472,#474) ;
#494=LINE('Line',#491,#493) ;
#506=LINE('Line',#503,#505) ;
#513=LINE('Line',#510,#512) ;
#525=LINE('Line',#522,#524) ;
#532=LINE('Line',#529,#531) ;
#549=LINE('Line',#546,#548) ;
#556=LINE('Line',#553,#555) ;
#568=LINE('Line',#565,#567) ;
#75=PLANE('',#74) ;
#232=PLANE('',#231) ;
#263=PLANE('',#262) ;
#335=PLANE('',#334) ;
#378=PLANE('',#377) ;
#421=PLANE('',#420) ;
#545=PLANE('',#544) ;
#581=PLANE('',#580) ;
#9=PRODUCT_CATEGORY_RELATIONSHIP(' ',' ',#7,#8) ;
#6=PRODUCT_DEFINITION_FORMATION_WITH_SPECIFIED_SOURCE('',' ',#5,.NOT_KNOWN.) ;
#20=SHAPE_DEFINITION_REPRESENTATION(#11,#19) ;
#41=VERTEX_POINT('',#40) ;
#43=VERTEX_POINT('',#42) ;
#50=VERTEX_POINT('',#49) ;
#57=VERTEX_POINT('',#56) ;
#81=VERTEX_POINT('',#80) ;
#83=VERTEX_POINT('',#82) ;
#90=VERTEX_POINT('',#89) ;
#97=VERTEX_POINT('',#96) ;
#104=VERTEX_POINT('',#103) ;
#111=VERTEX_POINT('',#110) ;
#118=VERTEX_POINT('',#117) ;
#125=VERTEX_POINT('',#124) ;
#132=VERTEX_POINT('',#131) ;
#139=VERTEX_POINT('',#138) ;
#146=VERTEX_POINT('',#145) ;
#153=VERTEX_POINT('',#152) ;
#160=VERTEX_POINT('',#159) ;
#167=VERTEX_POINT('',#166) ;
#174=VERTEX_POINT('',#173) ;
#181=VERTEX_POINT('',#180) ;
#238=VERTEX_POINT('',#237) ;
#245=VERTEX_POINT('',#244) ;
#269=VERTEX_POINT('',#268) ;
#293=VERTEX_POINT('',#292) ;
#317=VERTEX_POINT('',#316) ;
#341=VERTEX_POINT('',#340) ;
#360=VERTEX_POINT('',#359) ;
#384=VERTEX_POINT('',#383) ;
#403=VERTEX_POINT('',#402) ;
#427=VERTEX_POINT('',#426) ;
#446=VERTEX_POINT('',#445) ;
#470=VERTEX_POINT('',#469) ;
#489=VERTEX_POINT('',#488) ;
#508=VERTEX_POINT('',#507) ;
#527=VERTEX_POINT('',#526) ;
#551=VERTEX_POINT('',#550) ;
#12=(LENGTH_UNIT()NAMED_UNIT(*)SI_UNIT(.MILLI.,.METRE.)) ;
#13=(NAMED_UNIT(*)PLANE_ANGLE_UNIT()SI_UNIT($,.RADIAN.)) ;
#14=(NAMED_UNIT(*)SI_UNIT($,.STERADIAN.)SOLID_ANGLE_UNIT()) ;
#16=(GEOMETRIC_REPRESENTATION_CONTEXT(3)GLOBAL_UNCERTAINTY_ASSIGNED_CONTEXT((#15))GLOBAL_UNIT_ASSIGNED_CONTEXT((#12,#13,#14))REPRESENTATION_CONTEXT(' ',' ')) ;
ENDSEC;
END-ISO-10303-21;
