ISO-10303-21;
HEADER;
/* Generated by software containing ST-Developer
 * from STEP Tools, Inc. (www.steptools.com) 
 */

FILE_DESCRIPTION(
/* description */ (''),
/* implementation_level */ '2;1');

FILE_NAME(
/* name */ 'reducteur laser v1.step',
/* time_stamp */ '2023-06-14T18:20:59+02:00',
/* author */ (''),
/* organization */ (''),
/* preprocessor_version */ 'ST-DEVELOPER v19.2',
/* originating_system */ 'Autodesk Translation Framework v12.6.0.85',
/* authorisation */ '');

FILE_SCHEMA (('AUTOMOTIVE_DESIGN { 1 0 10303 214 3 1 1 }'));
ENDSEC;

DATA;
#10=MECHANICAL_DESIGN_GEOMETRIC_PRESENTATION_REPRESENTATION('',(#13),#260);
#11=SHAPE_REPRESENTATION_RELATIONSHIP('SRR','None',#267,#12);
#12=ADVANCED_BREP_SHAPE_REPRESENTATION('',(#14),#259);
#13=STYLED_ITEM('',(#276),#14);
#14=MANIFOLD_SOLID_BREP('Corps1',#140);
#15=FACE_BOUND('',#39,.T.);
#16=FACE_BOUND('',#41,.T.);
#17=FACE_BOUND('',#43,.T.);
#18=FACE_BOUND('',#45,.T.);
#19=FACE_BOUND('',#49,.T.);
#20=PLANE('',#163);
#21=PLANE('',#164);
#22=PLANE('',#165);
#23=PLANE('',#167);
#24=PLANE('',#173);
#25=FACE_OUTER_BOUND('',#35,.T.);
#26=FACE_OUTER_BOUND('',#36,.T.);
#27=FACE_OUTER_BOUND('',#37,.T.);
#28=FACE_OUTER_BOUND('',#38,.T.);
#29=FACE_OUTER_BOUND('',#40,.T.);
#30=FACE_OUTER_BOUND('',#42,.T.);
#31=FACE_OUTER_BOUND('',#44,.T.);
#32=FACE_OUTER_BOUND('',#46,.T.);
#33=FACE_OUTER_BOUND('',#47,.T.);
#34=FACE_OUTER_BOUND('',#48,.T.);
#35=EDGE_LOOP('',(#95,#96,#97,#98));
#36=EDGE_LOOP('',(#99,#100,#101,#102));
#37=EDGE_LOOP('',(#103,#104,#105,#106));
#38=EDGE_LOOP('',(#107));
#39=EDGE_LOOP('',(#108));
#40=EDGE_LOOP('',(#109));
#41=EDGE_LOOP('',(#110));
#42=EDGE_LOOP('',(#111));
#43=EDGE_LOOP('',(#112));
#44=EDGE_LOOP('',(#113));
#45=EDGE_LOOP('',(#114));
#46=EDGE_LOOP('',(#115,#116,#117,#118));
#47=EDGE_LOOP('',(#119,#120,#121,#122));
#48=EDGE_LOOP('',(#123));
#49=EDGE_LOOP('',(#124));
#50=LINE('',#226,#55);
#51=LINE('',#232,#56);
#52=LINE('',#238,#57);
#53=LINE('',#251,#58);
#54=LINE('',#254,#59);
#55=VECTOR('',#180,8.);
#56=VECTOR('',#187,9.);
#57=VECTOR('',#194,9.);
#58=VECTOR('',#213,19.);
#59=VECTOR('',#216,20.);
#60=CIRCLE('',#155,8.);
#61=CIRCLE('',#156,8.);
#62=CIRCLE('',#158,9.);
#63=CIRCLE('',#159,9.);
#64=CIRCLE('',#161,9.);
#65=CIRCLE('',#162,9.);
#66=CIRCLE('',#166,19.);
#67=CIRCLE('',#168,20.);
#68=CIRCLE('',#170,19.);
#69=CIRCLE('',#172,20.);
#70=VERTEX_POINT('',#223);
#71=VERTEX_POINT('',#225);
#72=VERTEX_POINT('',#229);
#73=VERTEX_POINT('',#231);
#74=VERTEX_POINT('',#235);
#75=VERTEX_POINT('',#237);
#76=VERTEX_POINT('',#243);
#77=VERTEX_POINT('',#246);
#78=VERTEX_POINT('',#249);
#79=VERTEX_POINT('',#253);
#80=EDGE_CURVE('',#70,#70,#60,.T.);
#81=EDGE_CURVE('',#70,#71,#50,.T.);
#82=EDGE_CURVE('',#71,#71,#61,.T.);
#83=EDGE_CURVE('',#72,#72,#62,.T.);
#84=EDGE_CURVE('',#72,#73,#51,.T.);
#85=EDGE_CURVE('',#73,#73,#63,.T.);
#86=EDGE_CURVE('',#74,#74,#64,.T.);
#87=EDGE_CURVE('',#74,#75,#52,.T.);
#88=EDGE_CURVE('',#75,#75,#65,.T.);
#89=EDGE_CURVE('',#76,#76,#66,.T.);
#90=EDGE_CURVE('',#77,#77,#67,.T.);
#91=EDGE_CURVE('',#78,#78,#68,.T.);
#92=EDGE_CURVE('',#78,#76,#53,.T.);
#93=EDGE_CURVE('',#77,#79,#54,.T.);
#94=EDGE_CURVE('',#79,#79,#69,.T.);
#95=ORIENTED_EDGE('',*,*,#80,.F.);
#96=ORIENTED_EDGE('',*,*,#81,.T.);
#97=ORIENTED_EDGE('',*,*,#82,.T.);
#98=ORIENTED_EDGE('',*,*,#81,.F.);
#99=ORIENTED_EDGE('',*,*,#83,.F.);
#100=ORIENTED_EDGE('',*,*,#84,.T.);
#101=ORIENTED_EDGE('',*,*,#85,.F.);
#102=ORIENTED_EDGE('',*,*,#84,.F.);
#103=ORIENTED_EDGE('',*,*,#86,.F.);
#104=ORIENTED_EDGE('',*,*,#87,.T.);
#105=ORIENTED_EDGE('',*,*,#88,.T.);
#106=ORIENTED_EDGE('',*,*,#87,.F.);
#107=ORIENTED_EDGE('',*,*,#83,.T.);
#108=ORIENTED_EDGE('',*,*,#80,.T.);
#109=ORIENTED_EDGE('',*,*,#88,.F.);
#110=ORIENTED_EDGE('',*,*,#82,.F.);
#111=ORIENTED_EDGE('',*,*,#89,.F.);
#112=ORIENTED_EDGE('',*,*,#86,.T.);
#113=ORIENTED_EDGE('',*,*,#90,.T.);
#114=ORIENTED_EDGE('',*,*,#85,.T.);
#115=ORIENTED_EDGE('',*,*,#91,.F.);
#116=ORIENTED_EDGE('',*,*,#92,.T.);
#117=ORIENTED_EDGE('',*,*,#89,.T.);
#118=ORIENTED_EDGE('',*,*,#92,.F.);
#119=ORIENTED_EDGE('',*,*,#90,.F.);
#120=ORIENTED_EDGE('',*,*,#93,.T.);
#121=ORIENTED_EDGE('',*,*,#94,.T.);
#122=ORIENTED_EDGE('',*,*,#93,.F.);
#123=ORIENTED_EDGE('',*,*,#94,.F.);
#124=ORIENTED_EDGE('',*,*,#91,.T.);
#125=CYLINDRICAL_SURFACE('',#154,8.);
#126=CYLINDRICAL_SURFACE('',#157,9.);
#127=CYLINDRICAL_SURFACE('',#160,9.);
#128=CYLINDRICAL_SURFACE('',#169,19.);
#129=CYLINDRICAL_SURFACE('',#171,20.);
#130=ADVANCED_FACE('',(#25),#125,.F.);
#131=ADVANCED_FACE('',(#26),#126,.T.);
#132=ADVANCED_FACE('',(#27),#127,.T.);
#133=ADVANCED_FACE('',(#28,#15),#20,.T.);
#134=ADVANCED_FACE('',(#29,#16),#21,.F.);
#135=ADVANCED_FACE('',(#30,#17),#22,.F.);
#136=ADVANCED_FACE('',(#31,#18),#23,.T.);
#137=ADVANCED_FACE('',(#32),#128,.F.);
#138=ADVANCED_FACE('',(#33),#129,.T.);
#139=ADVANCED_FACE('',(#34,#19),#24,.F.);
#140=CLOSED_SHELL('',(#130,#131,#132,#133,#134,#135,#136,#137,#138,#139));
#141=DERIVED_UNIT_ELEMENT(#143,1.);
#142=DERIVED_UNIT_ELEMENT(#262,-3.);
#143=(
MASS_UNIT()
NAMED_UNIT(*)
SI_UNIT(.KILO.,.GRAM.)
);
#144=DERIVED_UNIT((#141,#142));
#145=MEASURE_REPRESENTATION_ITEM('density measure',
POSITIVE_RATIO_MEASURE(7850.),#144);
#146=PROPERTY_DEFINITION_REPRESENTATION(#151,#148);
#147=PROPERTY_DEFINITION_REPRESENTATION(#152,#149);
#148=REPRESENTATION('material name',(#150),#259);
#149=REPRESENTATION('density',(#145),#259);
#150=DESCRIPTIVE_REPRESENTATION_ITEM('Acier','Acier');
#151=PROPERTY_DEFINITION('material property','material name',#269);
#152=PROPERTY_DEFINITION('material property','density of part',#269);
#153=AXIS2_PLACEMENT_3D('',#221,#174,#175);
#154=AXIS2_PLACEMENT_3D('',#222,#176,#177);
#155=AXIS2_PLACEMENT_3D('',#224,#178,#179);
#156=AXIS2_PLACEMENT_3D('',#227,#181,#182);
#157=AXIS2_PLACEMENT_3D('',#228,#183,#184);
#158=AXIS2_PLACEMENT_3D('',#230,#185,#186);
#159=AXIS2_PLACEMENT_3D('',#233,#188,#189);
#160=AXIS2_PLACEMENT_3D('',#234,#190,#191);
#161=AXIS2_PLACEMENT_3D('',#236,#192,#193);
#162=AXIS2_PLACEMENT_3D('',#239,#195,#196);
#163=AXIS2_PLACEMENT_3D('',#240,#197,#198);
#164=AXIS2_PLACEMENT_3D('',#241,#199,#200);
#165=AXIS2_PLACEMENT_3D('',#242,#201,#202);
#166=AXIS2_PLACEMENT_3D('',#244,#203,#204);
#167=AXIS2_PLACEMENT_3D('',#245,#205,#206);
#168=AXIS2_PLACEMENT_3D('',#247,#207,#208);
#169=AXIS2_PLACEMENT_3D('',#248,#209,#210);
#170=AXIS2_PLACEMENT_3D('',#250,#211,#212);
#171=AXIS2_PLACEMENT_3D('',#252,#214,#215);
#172=AXIS2_PLACEMENT_3D('',#255,#217,#218);
#173=AXIS2_PLACEMENT_3D('',#256,#219,#220);
#174=DIRECTION('axis',(0.,0.,1.));
#175=DIRECTION('refdir',(1.,0.,0.));
#176=DIRECTION('center_axis',(0.,1.,0.));
#177=DIRECTION('ref_axis',(1.,0.,0.));
#178=DIRECTION('center_axis',(0.,-1.,0.));
#179=DIRECTION('ref_axis',(1.,0.,0.));
#180=DIRECTION('',(0.,-1.,0.));
#181=DIRECTION('center_axis',(0.,-1.,0.));
#182=DIRECTION('ref_axis',(1.,0.,0.));
#183=DIRECTION('center_axis',(0.,1.,0.));
#184=DIRECTION('ref_axis',(1.,0.,0.));
#185=DIRECTION('center_axis',(0.,1.,0.));
#186=DIRECTION('ref_axis',(1.,0.,0.));
#187=DIRECTION('',(0.,-1.,0.));
#188=DIRECTION('center_axis',(0.,-1.,0.));
#189=DIRECTION('ref_axis',(1.,0.,0.));
#190=DIRECTION('center_axis',(0.,1.,0.));
#191=DIRECTION('ref_axis',(1.,0.,0.));
#192=DIRECTION('center_axis',(0.,1.,0.));
#193=DIRECTION('ref_axis',(1.,0.,0.));
#194=DIRECTION('',(0.,-1.,0.));
#195=DIRECTION('center_axis',(0.,1.,0.));
#196=DIRECTION('ref_axis',(1.,0.,0.));
#197=DIRECTION('center_axis',(0.,1.,0.));
#198=DIRECTION('ref_axis',(1.,0.,0.));
#199=DIRECTION('center_axis',(0.,1.,0.));
#200=DIRECTION('ref_axis',(1.,0.,0.));
#201=DIRECTION('center_axis',(0.,1.,0.));
#202=DIRECTION('ref_axis',(1.,0.,0.));
#203=DIRECTION('center_axis',(0.,1.,0.));
#204=DIRECTION('ref_axis',(1.,0.,0.));
#205=DIRECTION('center_axis',(0.,1.,0.));
#206=DIRECTION('ref_axis',(1.,0.,0.));
#207=DIRECTION('center_axis',(0.,1.,0.));
#208=DIRECTION('ref_axis',(1.,0.,0.));
#209=DIRECTION('center_axis',(0.,1.,0.));
#210=DIRECTION('ref_axis',(1.,0.,0.));
#211=DIRECTION('center_axis',(0.,1.,0.));
#212=DIRECTION('ref_axis',(1.,0.,0.));
#213=DIRECTION('',(0.,1.,0.));
#214=DIRECTION('center_axis',(0.,1.,0.));
#215=DIRECTION('ref_axis',(1.,0.,0.));
#216=DIRECTION('',(0.,-1.,0.));
#217=DIRECTION('center_axis',(0.,1.,0.));
#218=DIRECTION('ref_axis',(1.,0.,0.));
#219=DIRECTION('center_axis',(0.,1.,0.));
#220=DIRECTION('ref_axis',(1.,0.,0.));
#221=CARTESIAN_POINT('',(0.,0.,0.));
#222=CARTESIAN_POINT('Origin',(0.,0.,0.));
#223=CARTESIAN_POINT('',(-8.,40.,9.79717439317883E-16));
#224=CARTESIAN_POINT('Origin',(0.,40.,0.));
#225=CARTESIAN_POINT('',(-8.,0.,9.79717439317883E-16));
#226=CARTESIAN_POINT('',(-8.,0.,9.79717439317883E-16));
#227=CARTESIAN_POINT('Origin',(0.,0.,0.));
#228=CARTESIAN_POINT('Origin',(0.,0.,0.));
#229=CARTESIAN_POINT('',(-9.,40.,1.10218211923262E-15));
#230=CARTESIAN_POINT('Origin',(0.,40.,0.));
#231=CARTESIAN_POINT('',(-9.,25.5,-1.10218211923262E-15));
#232=CARTESIAN_POINT('',(-9.,0.,1.10218211923262E-15));
#233=CARTESIAN_POINT('Origin',(0.,25.5,0.));
#234=CARTESIAN_POINT('Origin',(0.,0.,0.));
#235=CARTESIAN_POINT('',(-9.,24.5,1.10218211923262E-15));
#236=CARTESIAN_POINT('Origin',(0.,24.5,0.));
#237=CARTESIAN_POINT('',(-9.,0.,1.10218211923262E-15));
#238=CARTESIAN_POINT('',(-9.,0.,1.10218211923262E-15));
#239=CARTESIAN_POINT('Origin',(0.,0.,0.));
#240=CARTESIAN_POINT('Origin',(0.,40.,0.));
#241=CARTESIAN_POINT('Origin',(0.,0.,0.));
#242=CARTESIAN_POINT('Origin',(0.,24.5,0.));
#243=CARTESIAN_POINT('',(-19.,24.5,2.32682891837997E-15));
#244=CARTESIAN_POINT('Origin',(0.,24.5,0.));
#245=CARTESIAN_POINT('Origin',(0.,25.5,0.));
#246=CARTESIAN_POINT('',(-20.,25.5,2.44929359829471E-15));
#247=CARTESIAN_POINT('Origin',(0.,25.5,0.));
#248=CARTESIAN_POINT('Origin',(0.,0.,0.));
#249=CARTESIAN_POINT('',(-19.,0.,2.32682891837997E-15));
#250=CARTESIAN_POINT('Origin',(0.,0.,0.));
#251=CARTESIAN_POINT('',(-19.,0.,2.32682891837997E-15));
#252=CARTESIAN_POINT('Origin',(0.,0.,0.));
#253=CARTESIAN_POINT('',(-20.,0.,2.44929359829471E-15));
#254=CARTESIAN_POINT('',(-20.,0.,2.44929359829471E-15));
#255=CARTESIAN_POINT('Origin',(0.,0.,0.));
#256=CARTESIAN_POINT('Origin',(0.,0.,0.));
#257=UNCERTAINTY_MEASURE_WITH_UNIT(LENGTH_MEASURE(0.01),#261,
'DISTANCE_ACCURACY_VALUE',
'Maximum model space distance between geometric entities at asserted c
onnectivities');
#258=UNCERTAINTY_MEASURE_WITH_UNIT(LENGTH_MEASURE(0.01),#261,
'DISTANCE_ACCURACY_VALUE',
'Maximum model space distance between geometric entities at asserted c
onnectivities');
#259=(
GEOMETRIC_REPRESENTATION_CONTEXT(3)
GLOBAL_UNCERTAINTY_ASSIGNED_CONTEXT((#257))
GLOBAL_UNIT_ASSIGNED_CONTEXT((#261,#263,#264))
REPRESENTATION_CONTEXT('','3D')
);
#260=(
GEOMETRIC_REPRESENTATION_CONTEXT(3)
GLOBAL_UNCERTAINTY_ASSIGNED_CONTEXT((#258))
GLOBAL_UNIT_ASSIGNED_CONTEXT((#261,#263,#264))
REPRESENTATION_CONTEXT('','3D')
);
#261=(
LENGTH_UNIT()
NAMED_UNIT(*)
SI_UNIT(.MILLI.,.METRE.)
);
#262=(
LENGTH_UNIT()
NAMED_UNIT(*)
SI_UNIT($,.METRE.)
);
#263=(
NAMED_UNIT(*)
PLANE_ANGLE_UNIT()
SI_UNIT($,.RADIAN.)
);
#264=(
NAMED_UNIT(*)
SI_UNIT($,.STERADIAN.)
SOLID_ANGLE_UNIT()
);
#265=SHAPE_DEFINITION_REPRESENTATION(#266,#267);
#266=PRODUCT_DEFINITION_SHAPE('',$,#269);
#267=SHAPE_REPRESENTATION('',(#153),#259);
#268=PRODUCT_DEFINITION_CONTEXT('part definition',#273,'design');
#269=PRODUCT_DEFINITION('reducteur laser','reducteur laser v2',#270,#268);
#270=PRODUCT_DEFINITION_FORMATION('',$,#275);
#271=PRODUCT_RELATED_PRODUCT_CATEGORY('reducteur laser v2',
'reducteur laser v2',(#275));
#272=APPLICATION_PROTOCOL_DEFINITION('international standard',
'automotive_design',2009,#273);
#273=APPLICATION_CONTEXT(
'Core Data for Automotive Mechanical Design Process');
#274=PRODUCT_CONTEXT('part definition',#273,'mechanical');
#275=PRODUCT('reducteur laser','reducteur laser v2',$,(#274));
#276=PRESENTATION_STYLE_ASSIGNMENT((#277));
#277=SURFACE_STYLE_USAGE(.BOTH.,#278);
#278=SURFACE_SIDE_STYLE('',(#279));
#279=SURFACE_STYLE_FILL_AREA(#280);
#280=FILL_AREA_STYLE('Acier - Satin\X\E9',(#281));
#281=FILL_AREA_STYLE_COLOUR('Acier - Satin\X\E9',#282);
#282=COLOUR_RGB('Acier - Satin\X\E9',0.627450980392157,0.627450980392157,
0.627450980392157);
ENDSEC;
END-ISO-10303-21;
