ISO-10303-21;
HEADER;
/* Generated by software containing ST-Developer
 * from STEP Tools, Inc. (www.steptools.com) 
 */
/* OPTION: using custom renumber hook */

FILE_DESCRIPTION(
/* description */ ('STEP AP203'),
/* implementation_level */ '2;1');

FILE_NAME(
/* name */ 'PSFRV10-200-F30-T30-W9',
/* time_stamp */ '2023-06-27T12:59:22+02:00',
/* author */ ('License CC BY-ND 4.0'),
/* organization */ ('CADENAS'),
/* preprocessor_version */ 'ST-DEVELOPER v18.102',
/* originating_system */ 'PARTsolutions',
/* authorisation */ '  ');

FILE_SCHEMA (('CONFIG_CONTROL_DESIGN'));
ENDSEC;

DATA;
#10=PROPERTY_DEFINITION_REPRESENTATION(#14,#12);
#11=PROPERTY_DEFINITION_REPRESENTATION(#15,#13);
#12=REPRESENTATION('',(#16),#281);
#13=REPRESENTATION('',(#17),#281);
#14=PROPERTY_DEFINITION('pmi validation property','',#288);
#15=PROPERTY_DEFINITION('pmi validation property','',#288);
#16=VALUE_REPRESENTATION_ITEM('number of annotations',COUNT_MEASURE(0.));
#17=VALUE_REPRESENTATION_ITEM('number of views',COUNT_MEASURE(0.));
#18=CONTEXT_DEPENDENT_SHAPE_REPRESENTATION(#20,#290);
#19=NEXT_ASSEMBLY_USAGE_OCCURRENCE('NAUO1','PSFRV10-200-F30-T30-W9_s',
'PSFRV10-200-F30-T30-W9_s',#291,#292,'');
#20=(
REPRESENTATION_RELATIONSHIP(' ',' ',#167,#166)
REPRESENTATION_RELATIONSHIP_WITH_TRANSFORMATION(#21)
SHAPE_REPRESENTATION_RELATIONSHIP()
);
#21=ITEM_DEFINED_TRANSFORMATION(' ',' ',#168,#184);
#22=SHAPE_REPRESENTATION_RELATIONSHIP('','',#167,#23);
#23=ADVANCED_BREP_SHAPE_REPRESENTATION('',(#163),#282);
#24=PLANE('',#176);
#25=PLANE('',#177);
#26=PLANE('',#180);
#27=PLANE('',#181);
#28=PLANE('',#182);
#29=PLANE('',#183);
#30=B_SPLINE_CURVE_WITH_KNOTS('',3,(#246,#247,#248,#249),.UNSPECIFIED.,
 .F.,.F.,(4,4),(0.00531615948015342,0.00637128313095462),.UNSPECIFIED.);
#31=B_SPLINE_CURVE_WITH_KNOTS('',3,(#253,#254,#255,#256),.UNSPECIFIED.,
 .F.,.F.,(4,4),(1.35086533112323E-6,0.00106224944411415),.UNSPECIFIED.);
#32=B_SPLINE_CURVE_WITH_KNOTS('',3,(#265,#266,#267,#268),.UNSPECIFIED.,
 .F.,.F.,(4,4),(0.00531615948015343,0.00637128313095463),.UNSPECIFIED.);
#33=B_SPLINE_CURVE_WITH_KNOTS('',3,(#269,#270,#271,#272),.UNSPECIFIED.,
 .F.,.F.,(4,4),(1.35086533114043E-6,0.00106224944411416),.UNSPECIFIED.);
#34=CONICAL_SURFACE('',#174,5.,0.785398163397447);
#35=CONICAL_SURFACE('',#179,4.5,0.785398163397447);
#36=LINE('',#232,#44);
#37=LINE('',#236,#45);
#38=LINE('',#237,#46);
#39=LINE('',#242,#47);
#40=LINE('',#258,#48);
#41=LINE('',#263,#49);
#42=LINE('',#274,#50);
#43=LINE('',#277,#51);
#44=VECTOR('',#191,1000.);
#45=VECTOR('',#194,1000.);
#46=VECTOR('',#195,1000.);
#47=VECTOR('',#198,1000.);
#48=VECTOR('',#207,1000.);
#49=VECTOR('',#212,1000.);
#50=VECTOR('',#217,1000.);
#51=VECTOR('',#222,1000.);
#52=ORIENTED_EDGE('',*,*,#88,.F.);
#53=ORIENTED_EDGE('',*,*,#89,.F.);
#54=ORIENTED_EDGE('',*,*,#90,.F.);
#55=ORIENTED_EDGE('',*,*,#91,.F.);
#56=ORIENTED_EDGE('',*,*,#92,.F.);
#57=ORIENTED_EDGE('',*,*,#93,.T.);
#58=ORIENTED_EDGE('',*,*,#94,.F.);
#59=ORIENTED_EDGE('',*,*,#95,.F.);
#60=ORIENTED_EDGE('',*,*,#96,.F.);
#61=ORIENTED_EDGE('',*,*,#97,.F.);
#62=ORIENTED_EDGE('',*,*,#98,.F.);
#63=ORIENTED_EDGE('',*,*,#88,.T.);
#64=ORIENTED_EDGE('',*,*,#99,.F.);
#65=ORIENTED_EDGE('',*,*,#97,.T.);
#66=ORIENTED_EDGE('',*,*,#100,.F.);
#67=ORIENTED_EDGE('',*,*,#101,.F.);
#68=ORIENTED_EDGE('',*,*,#102,.F.);
#69=ORIENTED_EDGE('',*,*,#100,.T.);
#70=ORIENTED_EDGE('',*,*,#103,.F.);
#71=ORIENTED_EDGE('',*,*,#93,.F.);
#72=ORIENTED_EDGE('',*,*,#102,.T.);
#73=ORIENTED_EDGE('',*,*,#92,.T.);
#74=ORIENTED_EDGE('',*,*,#104,.F.);
#75=ORIENTED_EDGE('',*,*,#94,.T.);
#76=ORIENTED_EDGE('',*,*,#103,.T.);
#77=ORIENTED_EDGE('',*,*,#101,.T.);
#78=ORIENTED_EDGE('',*,*,#95,.T.);
#79=ORIENTED_EDGE('',*,*,#104,.T.);
#80=ORIENTED_EDGE('',*,*,#90,.T.);
#81=ORIENTED_EDGE('',*,*,#105,.F.);
#82=ORIENTED_EDGE('',*,*,#89,.T.);
#83=ORIENTED_EDGE('',*,*,#98,.T.);
#84=ORIENTED_EDGE('',*,*,#99,.T.);
#85=ORIENTED_EDGE('',*,*,#96,.T.);
#86=ORIENTED_EDGE('',*,*,#91,.T.);
#87=ORIENTED_EDGE('',*,*,#105,.T.);
#88=EDGE_CURVE('',#106,#107,#118,.T.);
#89=EDGE_CURVE('',#108,#106,#36,.T.);
#90=EDGE_CURVE('',#109,#108,#119,.T.);
#91=EDGE_CURVE('',#107,#109,#37,.F.);
#92=EDGE_CURVE('',#110,#111,#38,.T.);
#93=EDGE_CURVE('',#110,#112,#120,.T.);
#94=EDGE_CURVE('',#113,#112,#39,.F.);
#95=EDGE_CURVE('',#111,#113,#121,.T.);
#96=EDGE_CURVE('',#114,#107,#30,.T.);
#97=EDGE_CURVE('',#115,#114,#122,.T.);
#98=EDGE_CURVE('',#106,#115,#31,.T.);
#99=EDGE_CURVE('',#115,#114,#40,.T.);
#100=EDGE_CURVE('',#116,#117,#123,.T.);
#101=EDGE_CURVE('',#117,#116,#41,.T.);
#102=EDGE_CURVE('',#116,#110,#32,.T.);
#103=EDGE_CURVE('',#112,#117,#33,.T.);
#104=EDGE_CURVE('',#113,#111,#42,.T.);
#105=EDGE_CURVE('',#109,#108,#43,.T.);
#106=VERTEX_POINT('',#230);
#107=VERTEX_POINT('',#231);
#108=VERTEX_POINT('',#233);
#109=VERTEX_POINT('',#235);
#110=VERTEX_POINT('',#238);
#111=VERTEX_POINT('',#239);
#112=VERTEX_POINT('',#241);
#113=VERTEX_POINT('',#243);
#114=VERTEX_POINT('',#250);
#115=VERTEX_POINT('',#252);
#116=VERTEX_POINT('',#261);
#117=VERTEX_POINT('',#262);
#118=CIRCLE('',#170,5.);
#119=CIRCLE('',#171,5.);
#120=CIRCLE('',#172,5.);
#121=CIRCLE('',#173,5.);
#122=CIRCLE('',#175,4.5);
#123=CIRCLE('',#178,4.5);
#124=EDGE_LOOP('',(#52,#53,#54,#55));
#125=EDGE_LOOP('',(#56,#57,#58,#59));
#126=EDGE_LOOP('',(#60,#61,#62,#63));
#127=EDGE_LOOP('',(#64,#65));
#128=EDGE_LOOP('',(#66,#67));
#129=EDGE_LOOP('',(#68,#69,#70,#71));
#130=EDGE_LOOP('',(#72,#73,#74,#75,#76,#77));
#131=EDGE_LOOP('',(#78,#79));
#132=EDGE_LOOP('',(#80,#81));
#133=EDGE_LOOP('',(#82,#83,#84,#85,#86,#87));
#134=FACE_BOUND('',#124,.T.);
#135=FACE_BOUND('',#125,.T.);
#136=FACE_BOUND('',#126,.T.);
#137=FACE_BOUND('',#127,.T.);
#138=FACE_BOUND('',#128,.T.);
#139=FACE_BOUND('',#129,.T.);
#140=FACE_BOUND('',#130,.T.);
#141=FACE_BOUND('',#131,.T.);
#142=FACE_BOUND('',#132,.T.);
#143=FACE_BOUND('',#133,.T.);
#144=CYLINDRICAL_SURFACE('',#169,5.);
#145=ADVANCED_FACE('',(#134,#135),#144,.T.);
#146=ADVANCED_FACE('',(#136),#34,.T.);
#147=ADVANCED_FACE('',(#137),#24,.F.);
#148=ADVANCED_FACE('',(#138),#25,.F.);
#149=ADVANCED_FACE('',(#139),#35,.T.);
#150=ADVANCED_FACE('',(#140),#26,.T.);
#151=ADVANCED_FACE('',(#141),#27,.T.);
#152=ADVANCED_FACE('',(#142),#28,.T.);
#153=ADVANCED_FACE('',(#143),#29,.T.);
#154=CLOSED_SHELL('',(#145,#146,#147,#148,#149,#150,#151,#152,#153));
#155=STYLED_ITEM('',(#156),#163);
#156=PRESENTATION_STYLE_ASSIGNMENT((#157));
#157=SURFACE_STYLE_USAGE(.BOTH.,#158);
#158=SURFACE_SIDE_STYLE('',(#159));
#159=SURFACE_STYLE_FILL_AREA(#160);
#160=FILL_AREA_STYLE('',(#161));
#161=FILL_AREA_STYLE_COLOUR('',#162);
#162=COLOUR_RGB('',0.689999997615814,0.689999997615814,0.689999997615814);
#163=MANIFOLD_SOLID_BREP('PSFRV10-200-F30-T30-W9_s',#154);
#164=SHAPE_DEFINITION_REPRESENTATION(#288,#166);
#165=SHAPE_DEFINITION_REPRESENTATION(#289,#167);
#166=SHAPE_REPRESENTATION('PSFRV10-200-F30-T30-W9',(#168,#184),#281);
#167=SHAPE_REPRESENTATION('PSFRV10-200-F30-T30-W9_s',(#168),#282);
#168=AXIS2_PLACEMENT_3D('',#227,#185,#186);
#169=AXIS2_PLACEMENT_3D('',#228,#187,#188);
#170=AXIS2_PLACEMENT_3D('',#229,#189,#190);
#171=AXIS2_PLACEMENT_3D('',#234,#192,#193);
#172=AXIS2_PLACEMENT_3D('',#240,#196,#197);
#173=AXIS2_PLACEMENT_3D('',#244,#199,#200);
#174=AXIS2_PLACEMENT_3D('',#245,#201,#202);
#175=AXIS2_PLACEMENT_3D('',#251,#203,#204);
#176=AXIS2_PLACEMENT_3D('',#257,#205,#206);
#177=AXIS2_PLACEMENT_3D('',#259,#208,#209);
#178=AXIS2_PLACEMENT_3D('',#260,#210,#211);
#179=AXIS2_PLACEMENT_3D('',#264,#213,#214);
#180=AXIS2_PLACEMENT_3D('',#273,#215,#216);
#181=AXIS2_PLACEMENT_3D('',#275,#218,#219);
#182=AXIS2_PLACEMENT_3D('',#276,#220,#221);
#183=AXIS2_PLACEMENT_3D('',#278,#223,#224);
#184=AXIS2_PLACEMENT_3D('',#279,#225,#226);
#185=DIRECTION('',(0.,0.,1.));
#186=DIRECTION('',(1.,0.,0.));
#187=DIRECTION('',(1.,0.,0.));
#188=DIRECTION('',(0.,0.,-1.));
#189=DIRECTION('',(1.,0.,0.));
#190=DIRECTION('',(0.,0.,-1.));
#191=DIRECTION('',(1.,0.,0.));
#192=DIRECTION('',(1.,0.,0.));
#193=DIRECTION('',(0.,0.,-1.));
#194=DIRECTION('',(1.,0.,0.));
#195=DIRECTION('',(1.,0.,0.));
#196=DIRECTION('',(1.,0.,0.));
#197=DIRECTION('',(0.,0.,-1.));
#198=DIRECTION('',(1.,0.,0.));
#199=DIRECTION('',(-1.,0.,0.));
#200=DIRECTION('',(0.,0.,1.));
#201=DIRECTION('',(-1.,0.,0.));
#202=DIRECTION('',(0.,0.,1.));
#203=DIRECTION('',(1.,0.,0.));
#204=DIRECTION('',(0.,0.,-1.));
#205=DIRECTION('',(-1.,0.,0.));
#206=DIRECTION('',(0.,0.,1.));
#207=DIRECTION('',(0.,1.,0.));
#208=DIRECTION('',(1.,0.,0.));
#209=DIRECTION('',(0.,0.,-1.));
#210=DIRECTION('',(1.,0.,0.));
#211=DIRECTION('',(0.,0.,-1.));
#212=DIRECTION('',(0.,-1.,0.));
#213=DIRECTION('',(1.,0.,0.));
#214=DIRECTION('',(0.,0.,-1.));
#215=DIRECTION('',(0.,0.,1.));
#216=DIRECTION('',(1.,0.,0.));
#217=DIRECTION('',(0.,-1.,0.));
#218=DIRECTION('',(-1.,0.,0.));
#219=DIRECTION('',(0.,0.,1.));
#220=DIRECTION('',(1.,0.,0.));
#221=DIRECTION('',(0.,0.,-1.));
#222=DIRECTION('',(0.,-1.,0.));
#223=DIRECTION('',(0.,0.,1.));
#224=DIRECTION('',(1.,0.,0.));
#225=DIRECTION('',(0.,0.,1.));
#226=DIRECTION('',(1.,0.,0.));
#227=CARTESIAN_POINT('',(0.,0.,0.));
#228=CARTESIAN_POINT('',(200.,0.,0.));
#229=CARTESIAN_POINT('',(199.5,0.,0.));
#230=CARTESIAN_POINT('',(199.5,-3.,4.));
#231=CARTESIAN_POINT('',(199.5,3.,4.));
#232=CARTESIAN_POINT('',(200.,-3.,4.));
#233=CARTESIAN_POINT('',(170.,-3.,4.));
#234=CARTESIAN_POINT('',(170.,0.,0.));
#235=CARTESIAN_POINT('',(170.,3.,4.));
#236=CARTESIAN_POINT('',(200.,3.,4.));
#237=CARTESIAN_POINT('',(200.,-3.,4.));
#238=CARTESIAN_POINT('',(0.5,-3.,4.));
#239=CARTESIAN_POINT('',(30.,-3.,4.));
#240=CARTESIAN_POINT('',(0.5,0.,0.));
#241=CARTESIAN_POINT('',(0.5,3.,4.));
#242=CARTESIAN_POINT('',(200.,3.,4.));
#243=CARTESIAN_POINT('',(30.,3.,4.));
#244=CARTESIAN_POINT('',(30.,0.,0.));
#245=CARTESIAN_POINT('',(199.5,0.,0.));
#246=CARTESIAN_POINT('',(200.,2.06155281280883,4.));
#247=CARTESIAN_POINT('',(199.852307923527,2.38393812353206,4.));
#248=CARTESIAN_POINT('',(199.682805725816,2.69532379030718,4.));
#249=CARTESIAN_POINT('',(199.5,2.99999999999999,4.));
#250=CARTESIAN_POINT('',(200.,2.06155281280883,4.));
#251=CARTESIAN_POINT('',(200.,0.,0.));
#252=CARTESIAN_POINT('',(200.,-2.06155281280883,4.));
#253=CARTESIAN_POINT('',(199.5,-3.00000000000001,4.));
#254=CARTESIAN_POINT('',(199.683229767611,-2.69461705398186,4.));
#255=CARTESIAN_POINT('',(199.85270868316,-2.38306333713927,4.));
#256=CARTESIAN_POINT('',(200.,-2.06155281280882,4.));
#257=CARTESIAN_POINT('',(200.,4.5,0.));
#258=CARTESIAN_POINT('',(200.,4.5,4.));
#259=CARTESIAN_POINT('',(0.,0.,0.));
#260=CARTESIAN_POINT('',(0.,0.,0.));
#261=CARTESIAN_POINT('',(0.,-2.06155281280883,4.));
#262=CARTESIAN_POINT('',(0.,2.06155281280883,4.));
#263=CARTESIAN_POINT('',(0.,20.,4.));
#264=CARTESIAN_POINT('',(0.,0.,0.));
#265=CARTESIAN_POINT('',(-1.20913906691642E-15,-2.06155281280883,4.));
#266=CARTESIAN_POINT('',(0.14769207647327,-2.38393812353206,4.));
#267=CARTESIAN_POINT('',(0.317194274184311,-2.69532379030718,4.));
#268=CARTESIAN_POINT('',(0.500000000000002,-3.,4.));
#269=CARTESIAN_POINT('',(0.500000000000001,3.,4.));
#270=CARTESIAN_POINT('',(0.316770232389111,2.69461705398185,4.));
#271=CARTESIAN_POINT('',(0.147291316840236,2.38306333713927,4.));
#272=CARTESIAN_POINT('',(9.42891612645318E-17,2.06155281280883,4.));
#273=CARTESIAN_POINT('',(30.,20.,4.));
#274=CARTESIAN_POINT('',(30.,20.,4.));
#275=CARTESIAN_POINT('',(30.,20.,14.));
#276=CARTESIAN_POINT('',(170.,20.,4.));
#277=CARTESIAN_POINT('',(170.,20.,4.));
#278=CARTESIAN_POINT('',(200.,20.,4.));
#279=CARTESIAN_POINT('',(0.,0.,0.));
#280=MECHANICAL_DESIGN_GEOMETRIC_PRESENTATION_REPRESENTATION('',(#155),
#281);
#281=(
GEOMETRIC_REPRESENTATION_CONTEXT(3)
GLOBAL_UNCERTAINTY_ASSIGNED_CONTEXT((#283))
GLOBAL_UNIT_ASSIGNED_CONTEXT((#287,#286,#285))
REPRESENTATION_CONTEXT('PSFRV10-200-F30-T30-W9',
'TOP_LEVEL_ASSEMBLY_PART')
);
#282=(
GEOMETRIC_REPRESENTATION_CONTEXT(3)
GLOBAL_UNCERTAINTY_ASSIGNED_CONTEXT((#284))
GLOBAL_UNIT_ASSIGNED_CONTEXT((#287,#286,#285))
REPRESENTATION_CONTEXT('PSFRV10-200-F30-T30-W9_s','COMPONENT_PART')
);
#283=UNCERTAINTY_MEASURE_WITH_UNIT(LENGTH_MEASURE(0.005),#287,
'DISTANCE_ACCURACY_VALUE','Maximum Tolerance applied to model');
#284=UNCERTAINTY_MEASURE_WITH_UNIT(LENGTH_MEASURE(0.005),#287,
'DISTANCE_ACCURACY_VALUE','Maximum Tolerance applied to model');
#285=(
NAMED_UNIT(*)
SI_UNIT($,.STERADIAN.)
SOLID_ANGLE_UNIT()
);
#286=(
NAMED_UNIT(*)
PLANE_ANGLE_UNIT()
SI_UNIT($,.RADIAN.)
);
#287=(
LENGTH_UNIT()
NAMED_UNIT(*)
SI_UNIT(.MILLI.,.METRE.)
);
#288=PRODUCT_DEFINITION_SHAPE('','',#291);
#289=PRODUCT_DEFINITION_SHAPE('','',#292);
#290=PRODUCT_DEFINITION_SHAPE(' ','NAUO PRDDFN',#19);
#291=PRODUCT_DEFINITION('','',#295,#293);
#292=PRODUCT_DEFINITION('','',#296,#294);
#293=DESIGN_CONTEXT('',#306,'design');
#294=DESIGN_CONTEXT('',#306,'design');
#295=PRODUCT_DEFINITION_FORMATION_WITH_SPECIFIED_SOURCE('','',#299,
 .NOT_KNOWN.);
#296=PRODUCT_DEFINITION_FORMATION_WITH_SPECIFIED_SOURCE('','',#300,
 .NOT_KNOWN.);
#297=PRODUCT_RELATED_PRODUCT_CATEGORY('','',(#299));
#298=PRODUCT_RELATED_PRODUCT_CATEGORY('','',(#300));
#299=PRODUCT('PSFRV10-200-F30-T30-W9','PSFRV10-200-F30-T30-W9',
'PSFRV10-200-F30-T30-W9',(#303));
#300=PRODUCT('PSFRV10-200-F30-T30-W9_s','PSFRV10-200-F30-T30-W9_s',
'PSFRV10-200-F30-T30-W9_s',(#304));
#301=PRODUCT_CATEGORY('','');
#302=PRODUCT_CATEGORY('','');
#303=MECHANICAL_CONTEXT('',#306,'mechanical');
#304=MECHANICAL_CONTEXT('',#306,'mechanical');
#305=APPLICATION_PROTOCOL_DEFINITION('international standard',
'config_control_design',2010,#306);
#306=APPLICATION_CONTEXT(
'configuration controlled 3D designs of mechanical parts and assemblie
s');
ENDSEC;
END-ISO-10303-21;
